  0
SECTION
  2
HEADER
  9
$ACADVER
  1
AC1009
  9
$FILLMODE
 70
1
  9
$EXTMIN
 10
0.0000
 20
0.0000
 30
0.0000
  9
$EXTMAX
 10
45.7000
 20
45.3900
 30
0.0000
  0
ENDSEC
  0
SECTION
  2
TABLES
  0
TABLE
  2
LTYPE
 70
1
  0
LTYPE
  2
CONTINUOUS
 70
64
  3
Solid line
 72
65
 73
0
 40
0
  0
ENDTAB
  0
TABLE
  2
LAYER
 70
255
  0
LAYER
  2
1
 70
64
 62
22
  6
CONTINUOUS
  0
LAYER
  2
117
 70
64
 62
253
  6
CONTINUOUS
  0
ENDTAB
  0
ENDSEC
  0
SECTION
  2
BLOCKS
  0
BLOCK
  8
0
  2
RECT
 70
64
 10
0.0000
 20
0.0000
 30
0.0000
  3
RECT
  0
SOLID
  8
0
 10
-0.5000
 20
-0.5000
 30
0.0000
 11
0.5000
 21
-0.5000
 31
0.0000
 12
-0.5000
 22
0.5000
 32
0.0000
 13
0.5000
 23
0.5000
 33
0.0000
  0
ENDBLK
  8
0
  0
BLOCK
  8
0
  2
PIE
 70
64
 10
0.0000
 20
0.0000
 30
0.0000
  3
PIE
  0
POLYLINE
  8
0
 66
1
 10
0.0000
 20
0.0000
 30
0.0000
 40
0.5000
 41
0.5000
 70
0
  0
VERTEX
  8
0
 10
0.0000
 20
-0.2500
 30
0.0000
 42
1.0000
  0
VERTEX
  8
0
 10
0.0000
 20
0.2500
 30
0.0000
 42
1.0000
  0
VERTEX
  8
0
 10
0.0000
 20
-0.2500
 30
0.0000
  0
SEQEND
  8
0
  0
ENDBLK
  8
0
  0
BLOCK
  8
0
  2
OCTAGONP
 70
64
 10
0.0000
 20
0.0000
 30
0.0000
  3
OCTAGONP
  0
POLYLINE
  8
0
 66
1
 10
0.0000
 20
0.0000
 30
0.0000
 40
0.5000
 41
0.5000
 70
0
  0
VERTEX
  8
0
 10
-0.2500
 20
-0.1036
 30
0.0000
  0
VERTEX
  8
0
 10
-0.2500
 20
0.1036
 30
0.0000
  0
VERTEX
  8
0
 10
-0.1036
 20
0.2500
 30
0.0000
  0
VERTEX
  8
0
 10
0.1036
 20
0.2500
 30
0.0000
  0
VERTEX
  8
0
 10
0.2500
 20
0.1036
 30
0.0000
  0
VERTEX
  8
0
 10
0.2500
 20
-0.1036
 30
0.0000
  0
VERTEX
  8
0
 10
0.1036
 20
-0.2500
 30
0.0000
  0
VERTEX
  8
0
 10
-0.1036
 20
-0.2500
 30
0.0000
  0
VERTEX
  8
0
 10
-0.2500
 20
-0.1036
 30
0.0000
  0
VERTEX
  8
0
 10
-0.2500
 20
0.1036
 30
0.0000
  0
SEQEND
  8
0
  0
ENDBLK
  8
0
  0
BLOCK
  8
0
  2
SQUAREP
 70
64
 10
0.0000
 20
0.0000
 30
0.0000
  3
SQUAREP
  0
SOLID
  8
0
 10
-0.5000
 20
-0.5000
 30
0.0000
 11
0.5000
 21
-0.5000
 31
0.0000
 12
-0.5000
 22
0.5000
 32
0.0000
 13
0.5000
 23
0.5000
 33
0.0000
  0
ENDBLK
  8
0
  0
BLOCK
  8
0
  2
ROUNDP
 70
64
 10
0.0000
 20
0.0000
 30
0.0000
  3
ROUNDP
  0
POLYLINE
  8
0
 66
1
 10
0.0000
 20
0.0000
 30
0.0000
 40
0.5000
 41
0.5000
 70
0
  0
VERTEX
  8
0
 10
0.0000
 20
-0.2500
 30
0.0000
 42
1.0000
  0
VERTEX
  8
0
 10
0.0000
 20
0.2500
 30
0.0000
 42
1.0000
  0
VERTEX
  8
0
 10
0.0000
 20
-0.2500
 30
0.0000
  0
SEQEND
  8
0
  0
ENDBLK
  8
0
  0
BLOCK
  8
0
  2
ANNULUSP
 70
64
 10
0.0000
 20
0.0000
 30
0.0000
  3
ANNULUSP
  0
POLYLINE
  8
0
 66
1
 10
0.0000
 20
0.0000
 30
0.0000
 40
0.5000
 41
0.5000
 70
0
  0
VERTEX
  8
0
 10
0.0000
 20
-0.2500
 30
0.0000
 42
1.0000
  0
VERTEX
  8
0
 10
0.0000
 20
0.2500
 30
0.0000
 42
1.0000
  0
VERTEX
  8
0
 10
0.0000
 20
-0.2500
 30
0.0000
  0
SEQEND
  8
0
  0
ENDBLK
  8
0
  0
BLOCK
  8
0
  2
THERMALP
 70
64
 10
0.0000
 20
0.0000
 30
0.0000
  3
THERMALP
  0
POLYLINE
  8
0
 66
1
 10
0.0000
 20
0.0000
 30
0.0000
 40
0.1000
 41
0.1000
 70
0
  0
VERTEX
  8
0
 10
-0.2379
 20
0.4500
 30
0.0000
  0
VERTEX
  8
0
 10
0.2379
 20
0.4500
 30
0.0000
  0
SEQEND
  8
0
  0
POLYLINE
  8
0
 66
1
 10
0.0000
 20
0.0000
 30
0.0000
 40
0.0500
 41
0.0500
 70
0
  0
VERTEX
  8
0
 10
0.2379
 20
0.4250
 30
0.0000
 42
1.0000
  0
VERTEX
  8
0
 10
0.2379
 20
0.4750
 30
0.0000
  0
SEQEND
  8
0
  0
POLYLINE
  8
0
 66
1
 10
0.0000
 20
0.0000
 30
0.0000
 40
0.0500
 41
0.0500
 70
0
  0
VERTEX
  8
0
 10
-0.2379
 20
0.4750
 30
0.0000
 42
1.0000
  0
VERTEX
  8
0
 10
-0.2379
 20
0.4250
 30
0.0000
  0
SEQEND
  8
0
  0
POLYLINE
  8
0
 66
1
 10
0.0000
 20
0.0000
 30
0.0000
 40
0.1000
 41
0.1000
 70
0
  0
VERTEX
  8
0
 10
0.4500
 20
0.2379
 30
0.0000
  0
VERTEX
  8
0
 10
0.4500
 20
-0.2379
 30
0.0000
  0
SEQEND
  8
0
  0
POLYLINE
  8
0
 66
1
 10
0.0000
 20
0.0000
 30
0.0000
 40
0.0500
 41
0.0500
 70
0
  0
VERTEX
  8
0
 10
0.4250
 20
-0.2379
 30
0.0000
 42
1.0000
  0
VERTEX
  8
0
 10
0.4750
 20
-0.2379
 30
0.0000
  0
SEQEND
  8
0
  0
POLYLINE
  8
0
 66
1
 10
0.0000
 20
0.0000
 30
0.0000
 40
0.0500
 41
0.0500
 70
0
  0
VERTEX
  8
0
 10
0.4750
 20
0.2379
 30
0.0000
 42
1.0000
  0
VERTEX
  8
0
 10
0.4250
 20
0.2379
 30
0.0000
  0
SEQEND
  8
0
  0
POLYLINE
  8
0
 66
1
 10
0.0000
 20
0.0000
 30
0.0000
 40
0.1000
 41
0.1000
 70
0
  0
VERTEX
  8
0
 10
0.2379
 20
-0.4500
 30
0.0000
  0
VERTEX
  8
0
 10
-0.2379
 20
-0.4500
 30
0.0000
  0
SEQEND
  8
0
  0
POLYLINE
  8
0
 66
1
 10
0.0000
 20
0.0000
 30
0.0000
 40
0.0500
 41
0.0500
 70
0
  0
VERTEX
  8
0
 10
-0.2379
 20
-0.4250
 30
0.0000
 42
1.0000
  0
VERTEX
  8
0
 10
-0.2379
 20
-0.4750
 30
0.0000
  0
SEQEND
  8
0
  0
POLYLINE
  8
0
 66
1
 10
0.0000
 20
0.0000
 30
0.0000
 40
0.0500
 41
0.0500
 70
0
  0
VERTEX
  8
0
 10
0.2379
 20
-0.4750
 30
0.0000
 42
1.0000
  0
VERTEX
  8
0
 10
0.2379
 20
-0.4250
 30
0.0000
  0
SEQEND
  8
0
  0
POLYLINE
  8
0
 66
1
 10
0.0000
 20
0.0000
 30
0.0000
 40
0.1000
 41
0.1000
 70
0
  0
VERTEX
  8
0
 10
-0.4500
 20
-0.2379
 30
0.0000
  0
VERTEX
  8
0
 10
-0.4500
 20
0.2379
 30
0.0000
  0
SEQEND
  8
0
  0
POLYLINE
  8
0
 66
1
 10
0.0000
 20
0.0000
 30
0.0000
 40
0.0500
 41
0.0500
 70
0
  0
VERTEX
  8
0
 10
-0.4250
 20
0.2379
 30
0.0000
 42
1.0000
  0
VERTEX
  8
0
 10
-0.4750
 20
0.2379
 30
0.0000
  0
SEQEND
  8
0
  0
POLYLINE
  8
0
 66
1
 10
0.0000
 20
0.0000
 30
0.0000
 40
0.0500
 41
0.0500
 70
0
  0
VERTEX
  8
0
 10
-0.4750
 20
-0.2379
 30
0.0000
 42
1.0000
  0
VERTEX
  8
0
 10
-0.4250
 20
-0.2379
 30
0.0000
  0
SEQEND
  8
0
  0
ENDBLK
  8
0
  0
BLOCK
  8
0
  2
OCTAGONV
 70
64
 10
0.0000
 20
0.0000
 30
0.0000
  3
OCTAGONV
  0
POLYLINE
  8
0
 66
1
 10
0.0000
 20
0.0000
 30
0.0000
 40
0.5000
 41
0.5000
 70
0
  0
VERTEX
  8
0
 10
-0.2500
 20
-0.1036
 30
0.0000
  0
VERTEX
  8
0
 10
-0.2500
 20
0.1036
 30
0.0000
  0
VERTEX
  8
0
 10
-0.1036
 20
0.2500
 30
0.0000
  0
VERTEX
  8
0
 10
0.1036
 20
0.2500
 30
0.0000
  0
VERTEX
  8
0
 10
0.2500
 20
0.1036
 30
0.0000
  0
VERTEX
  8
0
 10
0.2500
 20
-0.1036
 30
0.0000
  0
VERTEX
  8
0
 10
0.1036
 20
-0.2500
 30
0.0000
  0
VERTEX
  8
0
 10
-0.1036
 20
-0.2500
 30
0.0000
  0
VERTEX
  8
0
 10
-0.2500
 20
-0.1036
 30
0.0000
  0
VERTEX
  8
0
 10
-0.2500
 20
0.1036
 30
0.0000
  0
SEQEND
  8
0
  0
ENDBLK
  8
0
  0
BLOCK
  8
0
  2
SQUAREV
 70
64
 10
0.0000
 20
0.0000
 30
0.0000
  3
SQUAREV
  0
SOLID
  8
0
 10
-0.5000
 20
-0.5000
 30
0.0000
 11
0.5000
 21
-0.5000
 31
0.0000
 12
-0.5000
 22
0.5000
 32
0.0000
 13
0.5000
 23
0.5000
 33
0.0000
  0
ENDBLK
  8
0
  0
BLOCK
  8
0
  2
ROUNDV
 70
64
 10
0.0000
 20
0.0000
 30
0.0000
  3
ROUNDV
  0
POLYLINE
  8
0
 66
1
 10
0.0000
 20
0.0000
 30
0.0000
 40
0.5000
 41
0.5000
 70
0
  0
VERTEX
  8
0
 10
0.0000
 20
-0.2500
 30
0.0000
 42
1.0000
  0
VERTEX
  8
0
 10
0.0000
 20
0.2500
 30
0.0000
 42
1.0000
  0
VERTEX
  8
0
 10
0.0000
 20
-0.2500
 30
0.0000
  0
SEQEND
  8
0
  0
ENDBLK
  8
0
  0
BLOCK
  8
0
  2
ANNULUSV
 70
64
 10
0.0000
 20
0.0000
 30
0.0000
  3
ANNULUSV
  0
POLYLINE
  8
0
 66
1
 10
0.0000
 20
0.0000
 30
0.0000
 40
0.5000
 41
0.5000
 70
0
  0
VERTEX
  8
0
 10
0.0000
 20
-0.2500
 30
0.0000
 42
1.0000
  0
VERTEX
  8
0
 10
0.0000
 20
0.2500
 30
0.0000
 42
1.0000
  0
VERTEX
  8
0
 10
0.0000
 20
-0.2500
 30
0.0000
  0
SEQEND
  8
0
  0
ENDBLK
  8
0
  0
BLOCK
  8
0
  2
THERMALV
 70
64
 10
0.0000
 20
0.0000
 30
0.0000
  3
THERMALV
  0
POLYLINE
  8
0
 66
1
 10
0.0000
 20
0.0000
 30
0.0000
 40
0.1000
 41
0.1000
 70
0
  0
VERTEX
  8
0
 10
-0.2379
 20
0.4500
 30
0.0000
  0
VERTEX
  8
0
 10
0.2379
 20
0.4500
 30
0.0000
  0
SEQEND
  8
0
  0
POLYLINE
  8
0
 66
1
 10
0.0000
 20
0.0000
 30
0.0000
 40
0.0500
 41
0.0500
 70
0
  0
VERTEX
  8
0
 10
0.2379
 20
0.4250
 30
0.0000
 42
1.0000
  0
VERTEX
  8
0
 10
0.2379
 20
0.4750
 30
0.0000
  0
SEQEND
  8
0
  0
POLYLINE
  8
0
 66
1
 10
0.0000
 20
0.0000
 30
0.0000
 40
0.0500
 41
0.0500
 70
0
  0
VERTEX
  8
0
 10
-0.2379
 20
0.4750
 30
0.0000
 42
1.0000
  0
VERTEX
  8
0
 10
-0.2379
 20
0.4250
 30
0.0000
  0
SEQEND
  8
0
  0
POLYLINE
  8
0
 66
1
 10
0.0000
 20
0.0000
 30
0.0000
 40
0.1000
 41
0.1000
 70
0
  0
VERTEX
  8
0
 10
0.4500
 20
0.2379
 30
0.0000
  0
VERTEX
  8
0
 10
0.4500
 20
-0.2379
 30
0.0000
  0
SEQEND
  8
0
  0
POLYLINE
  8
0
 66
1
 10
0.0000
 20
0.0000
 30
0.0000
 40
0.0500
 41
0.0500
 70
0
  0
VERTEX
  8
0
 10
0.4250
 20
-0.2379
 30
0.0000
 42
1.0000
  0
VERTEX
  8
0
 10
0.4750
 20
-0.2379
 30
0.0000
  0
SEQEND
  8
0
  0
POLYLINE
  8
0
 66
1
 10
0.0000
 20
0.0000
 30
0.0000
 40
0.0500
 41
0.0500
 70
0
  0
VERTEX
  8
0
 10
0.4750
 20
0.2379
 30
0.0000
 42
1.0000
  0
VERTEX
  8
0
 10
0.4250
 20
0.2379
 30
0.0000
  0
SEQEND
  8
0
  0
POLYLINE
  8
0
 66
1
 10
0.0000
 20
0.0000
 30
0.0000
 40
0.1000
 41
0.1000
 70
0
  0
VERTEX
  8
0
 10
0.2379
 20
-0.4500
 30
0.0000
  0
VERTEX
  8
0
 10
-0.2379
 20
-0.4500
 30
0.0000
  0
SEQEND
  8
0
  0
POLYLINE
  8
0
 66
1
 10
0.0000
 20
0.0000
 30
0.0000
 40
0.0500
 41
0.0500
 70
0
  0
VERTEX
  8
0
 10
-0.2379
 20
-0.4250
 30
0.0000
 42
1.0000
  0
VERTEX
  8
0
 10
-0.2379
 20
-0.4750
 30
0.0000
  0
SEQEND
  8
0
  0
POLYLINE
  8
0
 66
1
 10
0.0000
 20
0.0000
 30
0.0000
 40
0.0500
 41
0.0500
 70
0
  0
VERTEX
  8
0
 10
0.2379
 20
-0.4750
 30
0.0000
 42
1.0000
  0
VERTEX
  8
0
 10
0.2379
 20
-0.4250
 30
0.0000
  0
SEQEND
  8
0
  0
POLYLINE
  8
0
 66
1
 10
0.0000
 20
0.0000
 30
0.0000
 40
0.1000
 41
0.1000
 70
0
  0
VERTEX
  8
0
 10
-0.4500
 20
-0.2379
 30
0.0000
  0
VERTEX
  8
0
 10
-0.4500
 20
0.2379
 30
0.0000
  0
SEQEND
  8
0
  0
POLYLINE
  8
0
 66
1
 10
0.0000
 20
0.0000
 30
0.0000
 40
0.0500
 41
0.0500
 70
0
  0
VERTEX
  8
0
 10
-0.4250
 20
0.2379
 30
0.0000
 42
1.0000
  0
VERTEX
  8
0
 10
-0.4750
 20
0.2379
 30
0.0000
  0
SEQEND
  8
0
  0
POLYLINE
  8
0
 66
1
 10
0.0000
 20
0.0000
 30
0.0000
 40
0.0500
 41
0.0500
 70
0
  0
VERTEX
  8
0
 10
-0.4750
 20
-0.2379
 30
0.0000
 42
1.0000
  0
VERTEX
  8
0
 10
-0.4250
 20
-0.2379
 30
0.0000
  0
SEQEND
  8
0
  0
ENDBLK
  8
0
  0
ENDSEC
  0
SECTION
  2
ENTITIES
  0
POLYLINE
  8
117
 66
1
 10
0.0000
 20
0.0000
 30
0.0000
 40
0.7620
 41
0.7620
 70
0
  0
VERTEX
  8
117
 10
2.5400
 20
2.5400
 30
0.0000
  0
VERTEX
  8
117
 10
2.5400
 20
43.1800
 30
0.0000
  0
SEQEND
  8
0
  0
POLYLINE
  8
117
 66
1
 10
0.0000
 20
0.0000
 30
0.0000
 40
0.3810
 41
0.3810
 70
0
  0
VERTEX
  8
117
 10
2.7305
 20
43.1800
 30
0.0000
 42
1.0000
  0
VERTEX
  8
117
 10
2.3495
 20
43.1800
 30
0.0000
  0
SEQEND
  8
0
  0
POLYLINE
  8
117
 66
1
 10
0.0000
 20
0.0000
 30
0.0000
 40
0.3810
 41
0.3810
 70
0
  0
VERTEX
  8
117
 10
2.3495
 20
2.5400
 30
0.0000
 42
1.0000
  0
VERTEX
  8
117
 10
2.7305
 20
2.5400
 30
0.0000
  0
SEQEND
  8
0
  0
POLYLINE
  8
117
 66
1
 10
0.0000
 20
0.0000
 30
0.0000
 40
0.7620
 41
0.7620
 70
0
  0
VERTEX
  8
117
 10
2.5400
 20
43.1800
 30
0.0000
  0
VERTEX
  8
117
 10
44.4500
 20
43.1800
 30
0.0000
  0
SEQEND
  8
0
  0
POLYLINE
  8
117
 66
1
 10
0.0000
 20
0.0000
 30
0.0000
 40
0.3810
 41
0.3810
 70
0
  0
VERTEX
  8
117
 10
44.4500
 20
42.9895
 30
0.0000
 42
1.0000
  0
VERTEX
  8
117
 10
44.4500
 20
43.3705
 30
0.0000
  0
SEQEND
  8
0
  0
POLYLINE
  8
117
 66
1
 10
0.0000
 20
0.0000
 30
0.0000
 40
0.3810
 41
0.3810
 70
0
  0
VERTEX
  8
117
 10
2.5400
 20
43.3705
 30
0.0000
 42
1.0000
  0
VERTEX
  8
117
 10
2.5400
 20
42.9895
 30
0.0000
  0
SEQEND
  8
0
  0
POLYLINE
  8
117
 66
1
 10
0.0000
 20
0.0000
 30
0.0000
 40
0.7620
 41
0.7620
 70
0
  0
VERTEX
  8
117
 10
44.4500
 20
43.1800
 30
0.0000
  0
VERTEX
  8
117
 10
44.4500
 20
2.5400
 30
0.0000
  0
SEQEND
  8
0
  0
POLYLINE
  8
117
 66
1
 10
0.0000
 20
0.0000
 30
0.0000
 40
0.3810
 41
0.3810
 70
0
  0
VERTEX
  8
117
 10
44.2595
 20
2.5400
 30
0.0000
 42
1.0000
  0
VERTEX
  8
117
 10
44.6405
 20
2.5400
 30
0.0000
  0
SEQEND
  8
0
  0
POLYLINE
  8
117
 66
1
 10
0.0000
 20
0.0000
 30
0.0000
 40
0.3810
 41
0.3810
 70
0
  0
VERTEX
  8
117
 10
44.6405
 20
43.1800
 30
0.0000
 42
1.0000
  0
VERTEX
  8
117
 10
44.2595
 20
43.1800
 30
0.0000
  0
SEQEND
  8
0
  0
POLYLINE
  8
117
 66
1
 10
0.0000
 20
0.0000
 30
0.0000
 40
0.7620
 41
0.7620
 70
0
  0
VERTEX
  8
117
 10
44.4500
 20
2.5400
 30
0.0000
  0
VERTEX
  8
117
 10
2.5400
 20
2.5400
 30
0.0000
  0
SEQEND
  8
0
  0
POLYLINE
  8
117
 66
1
 10
0.0000
 20
0.0000
 30
0.0000
 40
0.3810
 41
0.3810
 70
0
  0
VERTEX
  8
117
 10
2.5400
 20
2.7305
 30
0.0000
 42
1.0000
  0
VERTEX
  8
117
 10
2.5400
 20
2.3495
 30
0.0000
  0
SEQEND
  8
0
  0
POLYLINE
  8
117
 66
1
 10
0.0000
 20
0.0000
 30
0.0000
 40
0.3810
 41
0.3810
 70
0
  0
VERTEX
  8
117
 10
44.4500
 20
2.3495
 30
0.0000
 42
1.0000
  0
VERTEX
  8
117
 10
44.4500
 20
2.7305
 30
0.0000
  0
SEQEND
  8
0
  0
INSERT
  8
1
  2
RECT
 10
27.8100
 20
36.8300
 30
0.0000
 41
1.6000
 42
1.8000
 43
1.0000
 50
0.0000
  0
INSERT
  8
1
  2
RECT
 10
30.6100
 20
36.8300
 30
0.0000
 41
1.6000
 42
1.8000
 43
1.0000
 50
0.0000
  0
INSERT
  8
1
  2
RECT
 10
22.7965
 20
29.2100
 30
0.0000
 41
0.6096
 42
2.2098
 43
1.0000
 50
270.0000
  0
INSERT
  8
1
  2
RECT
 10
22.7965
 20
27.9400
 30
0.0000
 41
0.6096
 42
2.2098
 43
1.0000
 50
270.0000
  0
INSERT
  8
1
  2
RECT
 10
22.7965
 20
26.6700
 30
0.0000
 41
0.6096
 42
2.2098
 43
1.0000
 50
270.0000
  0
INSERT
  8
1
  2
RECT
 10
22.7965
 20
25.4000
 30
0.0000
 41
0.6096
 42
2.2098
 43
1.0000
 50
270.0000
  0
INSERT
  8
1
  2
RECT
 10
22.7965
 20
24.1300
 30
0.0000
 41
0.6096
 42
2.2098
 43
1.0000
 50
270.0000
  0
INSERT
  8
1
  2
RECT
 10
22.7965
 20
22.8600
 30
0.0000
 41
0.6096
 42
2.2098
 43
1.0000
 50
270.0000
  0
INSERT
  8
1
  2
RECT
 10
22.7965
 20
21.5900
 30
0.0000
 41
0.6096
 42
2.2098
 43
1.0000
 50
270.0000
  0
INSERT
  8
1
  2
RECT
 10
28.0035
 20
21.5900
 30
0.0000
 41
0.6096
 42
2.2098
 43
1.0000
 50
270.0000
  0
INSERT
  8
1
  2
RECT
 10
28.0035
 20
22.8600
 30
0.0000
 41
0.6096
 42
2.2098
 43
1.0000
 50
270.0000
  0
INSERT
  8
1
  2
RECT
 10
28.0035
 20
24.1300
 30
0.0000
 41
0.6096
 42
2.2098
 43
1.0000
 50
270.0000
  0
INSERT
  8
1
  2
RECT
 10
28.0035
 20
25.4000
 30
0.0000
 41
0.6096
 42
2.2098
 43
1.0000
 50
270.0000
  0
INSERT
  8
1
  2
RECT
 10
28.0035
 20
26.6700
 30
0.0000
 41
0.6096
 42
2.2098
 43
1.0000
 50
270.0000
  0
INSERT
  8
1
  2
RECT
 10
28.0035
 20
27.9400
 30
0.0000
 41
0.6096
 42
2.2098
 43
1.0000
 50
270.0000
  0
INSERT
  8
1
  2
RECT
 10
28.0035
 20
29.2100
 30
0.0000
 41
0.6096
 42
2.2098
 43
1.0000
 50
270.0000
  0
INSERT
  8
1
  2
RECT
 10
27.9400
 20
13.9700
 30
0.0000
 41
2.5400
 42
1.2700
 43
1.0000
 50
270.0000
  0
INSERT
  8
1
  2
RECT
 10
27.9400
 20
8.5100
 30
0.0000
 41
2.5400
 42
1.2700
 43
1.0000
 50
270.0000
  0
INSERT
  8
1
  2
RECT
 10
25.4000
 20
13.9700
 30
0.0000
 41
2.5400
 42
1.2700
 43
1.0000
 50
270.0000
  0
INSERT
  8
1
  2
RECT
 10
25.4000
 20
8.5100
 30
0.0000
 41
2.5400
 42
1.2700
 43
1.0000
 50
270.0000
  0
INSERT
  8
1
  2
RECT
 10
22.8600
 20
13.9700
 30
0.0000
 41
2.5400
 42
1.2700
 43
1.0000
 50
270.0000
  0
INSERT
  8
1
  2
RECT
 10
22.8600
 20
8.5100
 30
0.0000
 41
2.5400
 42
1.2700
 43
1.0000
 50
270.0000
  0
INSERT
  8
1
  2
RECT
 10
20.1680
 20
36.8300
 30
0.0000
 41
1.6000
 42
1.8030
 43
1.0000
 50
0.0000
  0
INSERT
  8
1
  2
RECT
 10
23.0120
 20
36.8300
 30
0.0000
 41
1.6000
 42
1.8030
 43
1.0000
 50
0.0000
  0
INSERT
  8
1
  2
RECT
 10
8.7380
 20
24.1300
 30
0.0000
 41
1.6000
 42
1.8030
 43
1.0000
 50
0.0000
  0
INSERT
  8
1
  2
RECT
 10
11.5820
 20
24.1300
 30
0.0000
 41
1.6000
 42
1.8030
 43
1.0000
 50
0.0000
  0
INSERT
  8
1
  2
RECT
 10
9.3980
 20
18.7960
 30
0.0000
 41
2.2860
 42
1.5240
 43
1.0000
 50
0.0000
  0
INSERT
  8
1
  2
RECT
 10
16.0020
 20
18.7960
 30
0.0000
 41
2.2860
 42
1.5240
 43
1.0000
 50
0.0000
  0
INSERT
  8
1
  2
RECT
 10
9.3980
 20
14.2240
 30
0.0000
 41
2.2860
 42
1.5240
 43
1.0000
 50
0.0000
  0
INSERT
  8
1
  2
RECT
 10
16.0020
 20
14.2240
 30
0.0000
 41
2.2860
 42
1.5240
 43
1.0000
 50
0.0000
  0
INSERT
  8
1
  2
RECT
 10
36.8300
 20
34.2900
 30
0.0000
 41
2.5400
 42
1.2700
 43
1.0000
 50
0.0000
  0
INSERT
  8
1
  2
RECT
 10
36.8300
 20
31.7500
 30
0.0000
 41
2.5400
 42
1.2700
 43
1.0000
 50
0.0000
  0
INSERT
  8
1
  2
RECT
 10
36.8300
 20
29.2100
 30
0.0000
 41
2.5400
 42
1.2700
 43
1.0000
 50
0.0000
  0
INSERT
  8
1
  2
RECT
 10
36.8300
 20
26.6700
 30
0.0000
 41
2.5400
 42
1.2700
 43
1.0000
 50
0.0000
  0
INSERT
  8
1
  2
RECT
 10
36.8300
 20
24.1300
 30
0.0000
 41
2.5400
 42
1.2700
 43
1.0000
 50
0.0000
  0
INSERT
  8
1
  2
RECT
 10
36.8300
 20
21.5900
 30
0.0000
 41
2.5400
 42
1.2700
 43
1.0000
 50
0.0000
  0
INSERT
  8
1
  2
RECT
 10
12.7000
 20
31.6700
 30
0.0000
 41
3.9000
 42
0.8000
 43
1.0000
 50
180.0000
  0
INSERT
  8
1
  2
RECT
 10
12.7000
 20
33.0200
 30
0.0000
 41
3.9000
 42
0.8000
 43
1.0000
 50
0.0000
  0
INSERT
  8
1
  2
RECT
 10
12.7000
 20
34.3700
 30
0.0000
 41
3.9000
 42
0.8000
 43
1.0000
 50
0.0000
  0
INSERT
  8
1
  2
RECT
 10
8.7380
 20
27.9400
 30
0.0000
 41
1.6000
 42
1.8030
 43
1.0000
 50
0.0000
  0
INSERT
  8
1
  2
RECT
 10
11.5820
 20
27.9400
 30
0.0000
 41
1.6000
 42
1.8030
 43
1.0000
 50
0.0000
  0
POLYLINE
  8
1
 66
1
 10
0.0000
 20
0.0000
 30
0.0000
 40
0.4064
 41
0.4064
 70
0
  0
VERTEX
  8
1
 10
36.8300
 20
34.2900
 30
0.0000
  0
VERTEX
  8
1
 10
33.0200
 20
34.2900
 30
0.0000
  0
SEQEND
  8
0
  0
POLYLINE
  8
1
 66
1
 10
0.0000
 20
0.0000
 30
0.0000
 40
0.2032
 41
0.2032
 70
0
  0
VERTEX
  8
1
 10
33.0200
 20
34.3916
 30
0.0000
 42
1.0000
  0
VERTEX
  8
1
 10
33.0200
 20
34.1884
 30
0.0000
  0
SEQEND
  8
0
  0
POLYLINE
  8
1
 66
1
 10
0.0000
 20
0.0000
 30
0.0000
 40
0.2032
 41
0.2032
 70
0
  0
VERTEX
  8
1
 10
36.8300
 20
34.1884
 30
0.0000
 42
1.0000
  0
VERTEX
  8
1
 10
36.8300
 20
34.3916
 30
0.0000
  0
SEQEND
  8
0
  0
POLYLINE
  8
1
 66
1
 10
0.0000
 20
0.0000
 30
0.0000
 40
0.4064
 41
0.4064
 70
0
  0
VERTEX
  8
1
 10
33.0200
 20
34.2900
 30
0.0000
  0
VERTEX
  8
1
 10
33.0200
 20
36.8300
 30
0.0000
  0
SEQEND
  8
0
  0
POLYLINE
  8
1
 66
1
 10
0.0000
 20
0.0000
 30
0.0000
 40
0.2032
 41
0.2032
 70
0
  0
VERTEX
  8
1
 10
33.1216
 20
36.8300
 30
0.0000
 42
1.0000
  0
VERTEX
  8
1
 10
32.9184
 20
36.8300
 30
0.0000
  0
SEQEND
  8
0
  0
POLYLINE
  8
1
 66
1
 10
0.0000
 20
0.0000
 30
0.0000
 40
0.2032
 41
0.2032
 70
0
  0
VERTEX
  8
1
 10
32.9184
 20
34.2900
 30
0.0000
 42
1.0000
  0
VERTEX
  8
1
 10
33.1216
 20
34.2900
 30
0.0000
  0
SEQEND
  8
0
  0
POLYLINE
  8
1
 66
1
 10
0.0000
 20
0.0000
 30
0.0000
 40
0.4064
 41
0.4064
 70
0
  0
VERTEX
  8
1
 10
33.0200
 20
36.8300
 30
0.0000
  0
VERTEX
  8
1
 10
30.6100
 20
36.8300
 30
0.0000
  0
SEQEND
  8
0
  0
POLYLINE
  8
1
 66
1
 10
0.0000
 20
0.0000
 30
0.0000
 40
0.2032
 41
0.2032
 70
0
  0
VERTEX
  8
1
 10
30.6100
 20
36.9316
 30
0.0000
 42
1.0000
  0
VERTEX
  8
1
 10
30.6100
 20
36.7284
 30
0.0000
  0
SEQEND
  8
0
  0
POLYLINE
  8
1
 66
1
 10
0.0000
 20
0.0000
 30
0.0000
 40
0.2032
 41
0.2032
 70
0
  0
VERTEX
  8
1
 10
33.0200
 20
36.7284
 30
0.0000
 42
1.0000
  0
VERTEX
  8
1
 10
33.0200
 20
36.9316
 30
0.0000
  0
SEQEND
  8
0
  0
POLYLINE
  8
1
 66
1
 10
0.0000
 20
0.0000
 30
0.0000
 40
0.4064
 41
0.4064
 70
0
  0
VERTEX
  8
1
 10
28.0035
 20
29.2100
 30
0.0000
  0
VERTEX
  8
1
 10
29.2100
 20
29.2100
 30
0.0000
  0
SEQEND
  8
0
  0
POLYLINE
  8
1
 66
1
 10
0.0000
 20
0.0000
 30
0.0000
 40
0.2032
 41
0.2032
 70
0
  0
VERTEX
  8
1
 10
29.2100
 20
29.1084
 30
0.0000
 42
1.0000
  0
VERTEX
  8
1
 10
29.2100
 20
29.3116
 30
0.0000
  0
SEQEND
  8
0
  0
POLYLINE
  8
1
 66
1
 10
0.0000
 20
0.0000
 30
0.0000
 40
0.2032
 41
0.2032
 70
0
  0
VERTEX
  8
1
 10
28.0035
 20
29.3116
 30
0.0000
 42
1.0000
  0
VERTEX
  8
1
 10
28.0035
 20
29.1084
 30
0.0000
  0
SEQEND
  8
0
  0
POLYLINE
  8
1
 66
1
 10
0.0000
 20
0.0000
 30
0.0000
 40
0.4064
 41
0.4064
 70
0
  0
VERTEX
  8
1
 10
29.2100
 20
29.2100
 30
0.0000
  0
VERTEX
  8
1
 10
30.4800
 20
30.3500
 30
0.0000
  0
SEQEND
  8
0
  0
POLYLINE
  8
1
 66
1
 10
0.0000
 20
0.0000
 30
0.0000
 40
0.2032
 41
0.2032
 70
0
  0
VERTEX
  8
1
 10
30.5479
 20
30.2744
 30
0.0000
 42
1.0000
  0
VERTEX
  8
1
 10
30.4121
 20
30.4256
 30
0.0000
  0
SEQEND
  8
0
  0
POLYLINE
  8
1
 66
1
 10
0.0000
 20
0.0000
 30
0.0000
 40
0.2032
 41
0.2032
 70
0
  0
VERTEX
  8
1
 10
29.1421
 20
29.2856
 30
0.0000
 42
1.0000
  0
VERTEX
  8
1
 10
29.2779
 20
29.1344
 30
0.0000
  0
SEQEND
  8
0
  0
POLYLINE
  8
1
 66
1
 10
0.0000
 20
0.0000
 30
0.0000
 40
0.4064
 41
0.4064
 70
0
  0
VERTEX
  8
1
 10
30.4800
 20
30.3500
 30
0.0000
  0
VERTEX
  8
1
 10
30.6100
 20
36.8300
 30
0.0000
  0
SEQEND
  8
0
  0
POLYLINE
  8
1
 66
1
 10
0.0000
 20
0.0000
 30
0.0000
 40
0.2032
 41
0.2032
 70
0
  0
VERTEX
  8
1
 10
30.7116
 20
36.8280
 30
0.0000
 42
1.0000
  0
VERTEX
  8
1
 10
30.5084
 20
36.8320
 30
0.0000
  0
SEQEND
  8
0
  0
POLYLINE
  8
1
 66
1
 10
0.0000
 20
0.0000
 30
0.0000
 40
0.2032
 41
0.2032
 70
0
  0
VERTEX
  8
1
 10
30.3784
 20
30.3520
 30
0.0000
 42
1.0000
  0
VERTEX
  8
1
 10
30.5816
 20
30.3480
 30
0.0000
  0
SEQEND
  8
0
  0
POLYLINE
  8
1
 66
1
 10
0.0000
 20
0.0000
 30
0.0000
 40
0.4064
 41
0.4064
 70
0
  0
VERTEX
  8
1
 10
22.8600
 20
8.5100
 30
0.0000
  0
VERTEX
  8
1
 10
22.8600
 20
6.3500
 30
0.0000
  0
SEQEND
  8
0
  0
POLYLINE
  8
1
 66
1
 10
0.0000
 20
0.0000
 30
0.0000
 40
0.2032
 41
0.2032
 70
0
  0
VERTEX
  8
1
 10
22.7584
 20
6.3500
 30
0.0000
 42
1.0000
  0
VERTEX
  8
1
 10
22.9616
 20
6.3500
 30
0.0000
  0
SEQEND
  8
0
  0
POLYLINE
  8
1
 66
1
 10
0.0000
 20
0.0000
 30
0.0000
 40
0.2032
 41
0.2032
 70
0
  0
VERTEX
  8
1
 10
22.9616
 20
8.5100
 30
0.0000
 42
1.0000
  0
VERTEX
  8
1
 10
22.7584
 20
8.5100
 30
0.0000
  0
SEQEND
  8
0
  0
POLYLINE
  8
1
 66
1
 10
0.0000
 20
0.0000
 30
0.0000
 40
0.4064
 41
0.4064
 70
0
  0
VERTEX
  8
1
 10
8.8900
 20
6.3500
 30
0.0000
  0
VERTEX
  8
1
 10
22.8600
 20
6.3500
 30
0.0000
  0
SEQEND
  8
0
  0
POLYLINE
  8
1
 66
1
 10
0.0000
 20
0.0000
 30
0.0000
 40
0.2032
 41
0.2032
 70
0
  0
VERTEX
  8
1
 10
22.8600
 20
6.2484
 30
0.0000
 42
1.0000
  0
VERTEX
  8
1
 10
22.8600
 20
6.4516
 30
0.0000
  0
SEQEND
  8
0
  0
POLYLINE
  8
1
 66
1
 10
0.0000
 20
0.0000
 30
0.0000
 40
0.2032
 41
0.2032
 70
0
  0
VERTEX
  8
1
 10
8.8900
 20
6.4516
 30
0.0000
 42
1.0000
  0
VERTEX
  8
1
 10
8.8900
 20
6.2484
 30
0.0000
  0
SEQEND
  8
0
  0
POLYLINE
  8
1
 66
1
 10
0.0000
 20
0.0000
 30
0.0000
 40
0.4064
 41
0.4064
 70
0
  0
VERTEX
  8
1
 10
5.9690
 20
33.0200
 30
0.0000
  0
VERTEX
  8
1
 10
12.7000
 20
33.0200
 30
0.0000
  0
SEQEND
  8
0
  0
POLYLINE
  8
1
 66
1
 10
0.0000
 20
0.0000
 30
0.0000
 40
0.2032
 41
0.2032
 70
0
  0
VERTEX
  8
1
 10
12.7000
 20
32.9184
 30
0.0000
 42
1.0000
  0
VERTEX
  8
1
 10
12.7000
 20
33.1216
 30
0.0000
  0
SEQEND
  8
0
  0
POLYLINE
  8
1
 66
1
 10
0.0000
 20
0.0000
 30
0.0000
 40
0.2032
 41
0.2032
 70
0
  0
VERTEX
  8
1
 10
5.9690
 20
33.1216
 30
0.0000
 42
1.0000
  0
VERTEX
  8
1
 10
5.9690
 20
32.9184
 30
0.0000
  0
SEQEND
  8
0
  0
POLYLINE
  8
1
 66
1
 10
0.0000
 20
0.0000
 30
0.0000
 40
0.4064
 41
0.4064
 70
0
  0
VERTEX
  8
1
 10
5.9690
 20
21.5900
 30
0.0000
  0
VERTEX
  8
1
 10
5.9690
 20
14.0970
 30
0.0000
  0
SEQEND
  8
0
  0
POLYLINE
  8
1
 66
1
 10
0.0000
 20
0.0000
 30
0.0000
 40
0.2032
 41
0.2032
 70
0
  0
VERTEX
  8
1
 10
5.8674
 20
14.0970
 30
0.0000
 42
1.0000
  0
VERTEX
  8
1
 10
6.0706
 20
14.0970
 30
0.0000
  0
SEQEND
  8
0
  0
POLYLINE
  8
1
 66
1
 10
0.0000
 20
0.0000
 30
0.0000
 40
0.2032
 41
0.2032
 70
0
  0
VERTEX
  8
1
 10
6.0706
 20
21.5900
 30
0.0000
 42
1.0000
  0
VERTEX
  8
1
 10
5.8674
 20
21.5900
 30
0.0000
  0
SEQEND
  8
0
  0
POLYLINE
  8
1
 66
1
 10
0.0000
 20
0.0000
 30
0.0000
 40
0.4064
 41
0.4064
 70
0
  0
VERTEX
  8
1
 10
5.9690
 20
21.5900
 30
0.0000
  0
VERTEX
  8
1
 10
5.9690
 20
33.0200
 30
0.0000
  0
SEQEND
  8
0
  0
POLYLINE
  8
1
 66
1
 10
0.0000
 20
0.0000
 30
0.0000
 40
0.2032
 41
0.2032
 70
0
  0
VERTEX
  8
1
 10
6.0706
 20
33.0200
 30
0.0000
 42
1.0000
  0
VERTEX
  8
1
 10
5.8674
 20
33.0200
 30
0.0000
  0
SEQEND
  8
0
  0
POLYLINE
  8
1
 66
1
 10
0.0000
 20
0.0000
 30
0.0000
 40
0.2032
 41
0.2032
 70
0
  0
VERTEX
  8
1
 10
5.8674
 20
21.5900
 30
0.0000
 42
1.0000
  0
VERTEX
  8
1
 10
6.0706
 20
21.5900
 30
0.0000
  0
SEQEND
  8
0
  0
POLYLINE
  8
1
 66
1
 10
0.0000
 20
0.0000
 30
0.0000
 40
0.4064
 41
0.4064
 70
0
  0
VERTEX
  8
1
 10
5.9690
 20
21.5900
 30
0.0000
  0
VERTEX
  8
1
 10
11.4300
 20
21.5900
 30
0.0000
  0
SEQEND
  8
0
  0
POLYLINE
  8
1
 66
1
 10
0.0000
 20
0.0000
 30
0.0000
 40
0.2032
 41
0.2032
 70
0
  0
VERTEX
  8
1
 10
11.4300
 20
21.4884
 30
0.0000
 42
1.0000
  0
VERTEX
  8
1
 10
11.4300
 20
21.6916
 30
0.0000
  0
SEQEND
  8
0
  0
POLYLINE
  8
1
 66
1
 10
0.0000
 20
0.0000
 30
0.0000
 40
0.2032
 41
0.2032
 70
0
  0
VERTEX
  8
1
 10
5.9690
 20
21.6916
 30
0.0000
 42
1.0000
  0
VERTEX
  8
1
 10
5.9690
 20
21.4884
 30
0.0000
  0
SEQEND
  8
0
  0
POLYLINE
  8
1
 66
1
 10
0.0000
 20
0.0000
 30
0.0000
 40
0.4064
 41
0.4064
 70
0
  0
VERTEX
  8
1
 10
11.4300
 20
21.5900
 30
0.0000
  0
VERTEX
  8
1
 10
11.4300
 20
23.9780
 30
0.0000
  0
SEQEND
  8
0
  0
POLYLINE
  8
1
 66
1
 10
0.0000
 20
0.0000
 30
0.0000
 40
0.2032
 41
0.2032
 70
0
  0
VERTEX
  8
1
 10
11.5316
 20
23.9780
 30
0.0000
 42
1.0000
  0
VERTEX
  8
1
 10
11.3284
 20
23.9780
 30
0.0000
  0
SEQEND
  8
0
  0
POLYLINE
  8
1
 66
1
 10
0.0000
 20
0.0000
 30
0.0000
 40
0.2032
 41
0.2032
 70
0
  0
VERTEX
  8
1
 10
11.3284
 20
21.5900
 30
0.0000
 42
1.0000
  0
VERTEX
  8
1
 10
11.5316
 20
21.5900
 30
0.0000
  0
SEQEND
  8
0
  0
POLYLINE
  8
1
 66
1
 10
0.0000
 20
0.0000
 30
0.0000
 40
0.4064
 41
0.4064
 70
0
  0
VERTEX
  8
1
 10
11.4300
 20
23.9780
 30
0.0000
  0
VERTEX
  8
1
 10
11.5820
 20
24.1300
 30
0.0000
  0
SEQEND
  8
0
  0
POLYLINE
  8
1
 66
1
 10
0.0000
 20
0.0000
 30
0.0000
 40
0.2032
 41
0.2032
 70
0
  0
VERTEX
  8
1
 10
11.6538
 20
24.0582
 30
0.0000
 42
1.0000
  0
VERTEX
  8
1
 10
11.5102
 20
24.2018
 30
0.0000
  0
SEQEND
  8
0
  0
POLYLINE
  8
1
 66
1
 10
0.0000
 20
0.0000
 30
0.0000
 40
0.2032
 41
0.2032
 70
0
  0
VERTEX
  8
1
 10
11.3582
 20
24.0498
 30
0.0000
 42
1.0000
  0
VERTEX
  8
1
 10
11.5018
 20
23.9062
 30
0.0000
  0
SEQEND
  8
0
  0
POLYLINE
  8
1
 66
1
 10
0.0000
 20
0.0000
 30
0.0000
 40
0.4064
 41
0.4064
 70
0
  0
VERTEX
  8
1
 10
22.8600
 20
6.3500
 30
0.0000
  0
VERTEX
  8
1
 10
26.6700
 20
6.3500
 30
0.0000
  0
SEQEND
  8
0
  0
POLYLINE
  8
1
 66
1
 10
0.0000
 20
0.0000
 30
0.0000
 40
0.2032
 41
0.2032
 70
0
  0
VERTEX
  8
1
 10
26.6700
 20
6.2484
 30
0.0000
 42
1.0000
  0
VERTEX
  8
1
 10
26.6700
 20
6.4516
 30
0.0000
  0
SEQEND
  8
0
  0
POLYLINE
  8
1
 66
1
 10
0.0000
 20
0.0000
 30
0.0000
 40
0.2032
 41
0.2032
 70
0
  0
VERTEX
  8
1
 10
22.8600
 20
6.4516
 30
0.0000
 42
1.0000
  0
VERTEX
  8
1
 10
22.8600
 20
6.2484
 30
0.0000
  0
SEQEND
  8
0
  0
POLYLINE
  8
1
 66
1
 10
0.0000
 20
0.0000
 30
0.0000
 40
0.4064
 41
0.4064
 70
0
  0
VERTEX
  8
1
 10
26.6700
 20
6.3500
 30
0.0000
  0
VERTEX
  8
1
 10
26.6700
 20
11.4300
 30
0.0000
  0
SEQEND
  8
0
  0
POLYLINE
  8
1
 66
1
 10
0.0000
 20
0.0000
 30
0.0000
 40
0.2032
 41
0.2032
 70
0
  0
VERTEX
  8
1
 10
26.7716
 20
11.4300
 30
0.0000
 42
1.0000
  0
VERTEX
  8
1
 10
26.5684
 20
11.4300
 30
0.0000
  0
SEQEND
  8
0
  0
POLYLINE
  8
1
 66
1
 10
0.0000
 20
0.0000
 30
0.0000
 40
0.2032
 41
0.2032
 70
0
  0
VERTEX
  8
1
 10
26.5684
 20
6.3500
 30
0.0000
 42
1.0000
  0
VERTEX
  8
1
 10
26.7716
 20
6.3500
 30
0.0000
  0
SEQEND
  8
0
  0
POLYLINE
  8
1
 66
1
 10
0.0000
 20
0.0000
 30
0.0000
 40
0.4064
 41
0.4064
 70
0
  0
VERTEX
  8
1
 10
26.6700
 20
11.4300
 30
0.0000
  0
VERTEX
  8
1
 10
24.1300
 20
11.4300
 30
0.0000
  0
SEQEND
  8
0
  0
POLYLINE
  8
1
 66
1
 10
0.0000
 20
0.0000
 30
0.0000
 40
0.2032
 41
0.2032
 70
0
  0
VERTEX
  8
1
 10
24.1300
 20
11.5316
 30
0.0000
 42
1.0000
  0
VERTEX
  8
1
 10
24.1300
 20
11.3284
 30
0.0000
  0
SEQEND
  8
0
  0
POLYLINE
  8
1
 66
1
 10
0.0000
 20
0.0000
 30
0.0000
 40
0.2032
 41
0.2032
 70
0
  0
VERTEX
  8
1
 10
26.6700
 20
11.3284
 30
0.0000
 42
1.0000
  0
VERTEX
  8
1
 10
26.6700
 20
11.5316
 30
0.0000
  0
SEQEND
  8
0
  0
POLYLINE
  8
1
 66
1
 10
0.0000
 20
0.0000
 30
0.0000
 40
0.4064
 41
0.4064
 70
0
  0
VERTEX
  8
1
 10
24.1300
 20
11.4300
 30
0.0000
  0
VERTEX
  8
1
 10
24.1300
 20
16.5100
 30
0.0000
  0
SEQEND
  8
0
  0
POLYLINE
  8
1
 66
1
 10
0.0000
 20
0.0000
 30
0.0000
 40
0.2032
 41
0.2032
 70
0
  0
VERTEX
  8
1
 10
24.2316
 20
16.5100
 30
0.0000
 42
1.0000
  0
VERTEX
  8
1
 10
24.0284
 20
16.5100
 30
0.0000
  0
SEQEND
  8
0
  0
POLYLINE
  8
1
 66
1
 10
0.0000
 20
0.0000
 30
0.0000
 40
0.2032
 41
0.2032
 70
0
  0
VERTEX
  8
1
 10
24.0284
 20
11.4300
 30
0.0000
 42
1.0000
  0
VERTEX
  8
1
 10
24.2316
 20
11.4300
 30
0.0000
  0
SEQEND
  8
0
  0
POLYLINE
  8
1
 66
1
 10
0.0000
 20
0.0000
 30
0.0000
 40
0.4064
 41
0.4064
 70
0
  0
VERTEX
  8
1
 10
24.1300
 20
16.5100
 30
0.0000
  0
VERTEX
  8
1
 10
25.4000
 20
16.5100
 30
0.0000
  0
SEQEND
  8
0
  0
POLYLINE
  8
1
 66
1
 10
0.0000
 20
0.0000
 30
0.0000
 40
0.2032
 41
0.2032
 70
0
  0
VERTEX
  8
1
 10
25.4000
 20
16.4084
 30
0.0000
 42
1.0000
  0
VERTEX
  8
1
 10
25.4000
 20
16.6116
 30
0.0000
  0
SEQEND
  8
0
  0
POLYLINE
  8
1
 66
1
 10
0.0000
 20
0.0000
 30
0.0000
 40
0.2032
 41
0.2032
 70
0
  0
VERTEX
  8
1
 10
24.1300
 20
16.6116
 30
0.0000
 42
1.0000
  0
VERTEX
  8
1
 10
24.1300
 20
16.4084
 30
0.0000
  0
SEQEND
  8
0
  0
POLYLINE
  8
1
 66
1
 10
0.0000
 20
0.0000
 30
0.0000
 40
0.4064
 41
0.4064
 70
0
  0
VERTEX
  8
1
 10
25.4000
 20
16.5100
 30
0.0000
  0
VERTEX
  8
1
 10
25.4000
 20
29.2100
 30
0.0000
  0
SEQEND
  8
0
  0
POLYLINE
  8
1
 66
1
 10
0.0000
 20
0.0000
 30
0.0000
 40
0.2032
 41
0.2032
 70
0
  0
VERTEX
  8
1
 10
25.5016
 20
29.2100
 30
0.0000
 42
1.0000
  0
VERTEX
  8
1
 10
25.2984
 20
29.2100
 30
0.0000
  0
SEQEND
  8
0
  0
POLYLINE
  8
1
 66
1
 10
0.0000
 20
0.0000
 30
0.0000
 40
0.2032
 41
0.2032
 70
0
  0
VERTEX
  8
1
 10
25.2984
 20
16.5100
 30
0.0000
 42
1.0000
  0
VERTEX
  8
1
 10
25.5016
 20
16.5100
 30
0.0000
  0
SEQEND
  8
0
  0
POLYLINE
  8
1
 66
1
 10
0.0000
 20
0.0000
 30
0.0000
 40
0.4064
 41
0.4064
 70
0
  0
VERTEX
  8
1
 10
25.4000
 20
29.2100
 30
0.0000
  0
VERTEX
  8
1
 10
28.0035
 20
29.2100
 30
0.0000
  0
SEQEND
  8
0
  0
POLYLINE
  8
1
 66
1
 10
0.0000
 20
0.0000
 30
0.0000
 40
0.2032
 41
0.2032
 70
0
  0
VERTEX
  8
1
 10
28.0035
 20
29.1084
 30
0.0000
 42
1.0000
  0
VERTEX
  8
1
 10
28.0035
 20
29.3116
 30
0.0000
  0
SEQEND
  8
0
  0
POLYLINE
  8
1
 66
1
 10
0.0000
 20
0.0000
 30
0.0000
 40
0.2032
 41
0.2032
 70
0
  0
VERTEX
  8
1
 10
25.4000
 20
29.3116
 30
0.0000
 42
1.0000
  0
VERTEX
  8
1
 10
25.4000
 20
29.1084
 30
0.0000
  0
SEQEND
  8
0
  0
POLYLINE
  8
1
 66
1
 10
0.0000
 20
0.0000
 30
0.0000
 40
0.4064
 41
0.4064
 70
0
  0
VERTEX
  8
1
 10
8.8900
 20
14.0970
 30
0.0000
  0
VERTEX
  8
1
 10
5.9690
 20
14.0970
 30
0.0000
  0
SEQEND
  8
0
  0
POLYLINE
  8
1
 66
1
 10
0.0000
 20
0.0000
 30
0.0000
 40
0.2032
 41
0.2032
 70
0
  0
VERTEX
  8
1
 10
5.9690
 20
14.1986
 30
0.0000
 42
1.0000
  0
VERTEX
  8
1
 10
5.9690
 20
13.9954
 30
0.0000
  0
SEQEND
  8
0
  0
POLYLINE
  8
1
 66
1
 10
0.0000
 20
0.0000
 30
0.0000
 40
0.2032
 41
0.2032
 70
0
  0
VERTEX
  8
1
 10
8.8900
 20
13.9954
 30
0.0000
 42
1.0000
  0
VERTEX
  8
1
 10
8.8900
 20
14.1986
 30
0.0000
  0
SEQEND
  8
0
  0
POLYLINE
  8
1
 66
1
 10
0.0000
 20
0.0000
 30
0.0000
 40
0.4064
 41
0.4064
 70
0
  0
VERTEX
  8
1
 10
9.3980
 20
14.2240
 30
0.0000
  0
VERTEX
  8
1
 10
9.0170
 20
14.2240
 30
0.0000
  0
SEQEND
  8
0
  0
POLYLINE
  8
1
 66
1
 10
0.0000
 20
0.0000
 30
0.0000
 40
0.2032
 41
0.2032
 70
0
  0
VERTEX
  8
1
 10
9.0170
 20
14.3256
 30
0.0000
 42
1.0000
  0
VERTEX
  8
1
 10
9.0170
 20
14.1224
 30
0.0000
  0
SEQEND
  8
0
  0
POLYLINE
  8
1
 66
1
 10
0.0000
 20
0.0000
 30
0.0000
 40
0.2032
 41
0.2032
 70
0
  0
VERTEX
  8
1
 10
9.3980
 20
14.1224
 30
0.0000
 42
1.0000
  0
VERTEX
  8
1
 10
9.3980
 20
14.3256
 30
0.0000
  0
SEQEND
  8
0
  0
POLYLINE
  8
1
 66
1
 10
0.0000
 20
0.0000
 30
0.0000
 40
0.4064
 41
0.4064
 70
0
  0
VERTEX
  8
1
 10
9.0170
 20
14.2240
 30
0.0000
  0
VERTEX
  8
1
 10
8.8900
 20
14.0970
 30
0.0000
  0
SEQEND
  8
0
  0
POLYLINE
  8
1
 66
1
 10
0.0000
 20
0.0000
 30
0.0000
 40
0.2032
 41
0.2032
 70
0
  0
VERTEX
  8
1
 10
8.8182
 20
14.1688
 30
0.0000
 42
1.0000
  0
VERTEX
  8
1
 10
8.9618
 20
14.0252
 30
0.0000
  0
SEQEND
  8
0
  0
POLYLINE
  8
1
 66
1
 10
0.0000
 20
0.0000
 30
0.0000
 40
0.2032
 41
0.2032
 70
0
  0
VERTEX
  8
1
 10
9.0888
 20
14.1522
 30
0.0000
 42
1.0000
  0
VERTEX
  8
1
 10
8.9452
 20
14.2958
 30
0.0000
  0
SEQEND
  8
0
  0
POLYLINE
  8
1
 66
1
 10
0.0000
 20
0.0000
 30
0.0000
 40
0.4064
 41
0.4064
 70
0
  0
VERTEX
  8
1
 10
9.3980
 20
14.2240
 30
0.0000
  0
VERTEX
  8
1
 10
8.8900
 20
13.7160
 30
0.0000
  0
SEQEND
  8
0
  0
POLYLINE
  8
1
 66
1
 10
0.0000
 20
0.0000
 30
0.0000
 40
0.2032
 41
0.2032
 70
0
  0
VERTEX
  8
1
 10
8.8182
 20
13.7878
 30
0.0000
 42
1.0000
  0
VERTEX
  8
1
 10
8.9618
 20
13.6442
 30
0.0000
  0
SEQEND
  8
0
  0
POLYLINE
  8
1
 66
1
 10
0.0000
 20
0.0000
 30
0.0000
 40
0.2032
 41
0.2032
 70
0
  0
VERTEX
  8
1
 10
9.4698
 20
14.1522
 30
0.0000
 42
1.0000
  0
VERTEX
  8
1
 10
9.3262
 20
14.2958
 30
0.0000
  0
SEQEND
  8
0
  0
POLYLINE
  8
1
 66
1
 10
0.0000
 20
0.0000
 30
0.0000
 40
0.4064
 41
0.4064
 70
0
  0
VERTEX
  8
1
 10
8.8900
 20
13.7160
 30
0.0000
  0
VERTEX
  8
1
 10
8.8900
 20
6.3500
 30
0.0000
  0
SEQEND
  8
0
  0
POLYLINE
  8
1
 66
1
 10
0.0000
 20
0.0000
 30
0.0000
 40
0.2032
 41
0.2032
 70
0
  0
VERTEX
  8
1
 10
8.7884
 20
6.3500
 30
0.0000
 42
1.0000
  0
VERTEX
  8
1
 10
8.9916
 20
6.3500
 30
0.0000
  0
SEQEND
  8
0
  0
POLYLINE
  8
1
 66
1
 10
0.0000
 20
0.0000
 30
0.0000
 40
0.2032
 41
0.2032
 70
0
  0
VERTEX
  8
1
 10
8.9916
 20
13.7160
 30
0.0000
 42
1.0000
  0
VERTEX
  8
1
 10
8.7884
 20
13.7160
 30
0.0000
  0
SEQEND
  8
0
  0
POLYLINE
  8
1
 66
1
 10
0.0000
 20
0.0000
 30
0.0000
 40
0.4064
 41
0.4064
 70
0
  0
VERTEX
  8
1
 10
8.7380
 20
24.1300
 30
0.0000
  0
VERTEX
  8
1
 10
8.8900
 20
24.2820
 30
0.0000
  0
SEQEND
  8
0
  0
POLYLINE
  8
1
 66
1
 10
0.0000
 20
0.0000
 30
0.0000
 40
0.2032
 41
0.2032
 70
0
  0
VERTEX
  8
1
 10
8.9618
 20
24.2102
 30
0.0000
 42
1.0000
  0
VERTEX
  8
1
 10
8.8182
 20
24.3538
 30
0.0000
  0
SEQEND
  8
0
  0
POLYLINE
  8
1
 66
1
 10
0.0000
 20
0.0000
 30
0.0000
 40
0.2032
 41
0.2032
 70
0
  0
VERTEX
  8
1
 10
8.6662
 20
24.2018
 30
0.0000
 42
1.0000
  0
VERTEX
  8
1
 10
8.8098
 20
24.0582
 30
0.0000
  0
SEQEND
  8
0
  0
POLYLINE
  8
1
 66
1
 10
0.0000
 20
0.0000
 30
0.0000
 40
0.4064
 41
0.4064
 70
0
  0
VERTEX
  8
1
 10
8.8900
 20
25.9080
 30
0.0000
  0
VERTEX
  8
1
 10
11.4300
 20
25.9080
 30
0.0000
  0
SEQEND
  8
0
  0
POLYLINE
  8
1
 66
1
 10
0.0000
 20
0.0000
 30
0.0000
 40
0.2032
 41
0.2032
 70
0
  0
VERTEX
  8
1
 10
11.4300
 20
25.8064
 30
0.0000
 42
1.0000
  0
VERTEX
  8
1
 10
11.4300
 20
26.0096
 30
0.0000
  0
SEQEND
  8
0
  0
POLYLINE
  8
1
 66
1
 10
0.0000
 20
0.0000
 30
0.0000
 40
0.2032
 41
0.2032
 70
0
  0
VERTEX
  8
1
 10
8.8900
 20
26.0096
 30
0.0000
 42
1.0000
  0
VERTEX
  8
1
 10
8.8900
 20
25.8064
 30
0.0000
  0
SEQEND
  8
0
  0
POLYLINE
  8
1
 66
1
 10
0.0000
 20
0.0000
 30
0.0000
 40
0.4064
 41
0.4064
 70
0
  0
VERTEX
  8
1
 10
11.4300
 20
25.9080
 30
0.0000
  0
VERTEX
  8
1
 10
11.5820
 20
26.0600
 30
0.0000
  0
SEQEND
  8
0
  0
POLYLINE
  8
1
 66
1
 10
0.0000
 20
0.0000
 30
0.0000
 40
0.2032
 41
0.2032
 70
0
  0
VERTEX
  8
1
 10
11.6538
 20
25.9882
 30
0.0000
 42
1.0000
  0
VERTEX
  8
1
 10
11.5102
 20
26.1318
 30
0.0000
  0
SEQEND
  8
0
  0
POLYLINE
  8
1
 66
1
 10
0.0000
 20
0.0000
 30
0.0000
 40
0.2032
 41
0.2032
 70
0
  0
VERTEX
  8
1
 10
11.3582
 20
25.9798
 30
0.0000
 42
1.0000
  0
VERTEX
  8
1
 10
11.5018
 20
25.8362
 30
0.0000
  0
SEQEND
  8
0
  0
POLYLINE
  8
1
 66
1
 10
0.0000
 20
0.0000
 30
0.0000
 40
0.4064
 41
0.4064
 70
0
  0
VERTEX
  8
1
 10
11.5820
 20
26.0600
 30
0.0000
  0
VERTEX
  8
1
 10
11.5820
 20
27.9400
 30
0.0000
  0
SEQEND
  8
0
  0
POLYLINE
  8
1
 66
1
 10
0.0000
 20
0.0000
 30
0.0000
 40
0.2032
 41
0.2032
 70
0
  0
VERTEX
  8
1
 10
11.6836
 20
27.9400
 30
0.0000
 42
1.0000
  0
VERTEX
  8
1
 10
11.4804
 20
27.9400
 30
0.0000
  0
SEQEND
  8
0
  0
POLYLINE
  8
1
 66
1
 10
0.0000
 20
0.0000
 30
0.0000
 40
0.2032
 41
0.2032
 70
0
  0
VERTEX
  8
1
 10
11.4804
 20
26.0600
 30
0.0000
 42
1.0000
  0
VERTEX
  8
1
 10
11.6836
 20
26.0600
 30
0.0000
  0
SEQEND
  8
0
  0
POLYLINE
  8
1
 66
1
 10
0.0000
 20
0.0000
 30
0.0000
 40
0.4064
 41
0.4064
 70
0
  0
VERTEX
  8
1
 10
8.8900
 20
24.2820
 30
0.0000
  0
VERTEX
  8
1
 10
8.8900
 20
25.9080
 30
0.0000
  0
SEQEND
  8
0
  0
POLYLINE
  8
1
 66
1
 10
0.0000
 20
0.0000
 30
0.0000
 40
0.2032
 41
0.2032
 70
0
  0
VERTEX
  8
1
 10
8.9916
 20
25.9080
 30
0.0000
 42
1.0000
  0
VERTEX
  8
1
 10
8.7884
 20
25.9080
 30
0.0000
  0
SEQEND
  8
0
  0
POLYLINE
  8
1
 66
1
 10
0.0000
 20
0.0000
 30
0.0000
 40
0.2032
 41
0.2032
 70
0
  0
VERTEX
  8
1
 10
8.7884
 20
24.2820
 30
0.0000
 42
1.0000
  0
VERTEX
  8
1
 10
8.9916
 20
24.2820
 30
0.0000
  0
SEQEND
  8
0
  0
POLYLINE
  8
1
 66
1
 10
0.0000
 20
0.0000
 30
0.0000
 40
0.4064
 41
0.4064
 70
0
  0
VERTEX
  8
1
 10
22.7965
 20
26.6700
 30
0.0000
  0
VERTEX
  8
1
 10
16.5100
 20
26.6700
 30
0.0000
  0
SEQEND
  8
0
  0
POLYLINE
  8
1
 66
1
 10
0.0000
 20
0.0000
 30
0.0000
 40
0.2032
 41
0.2032
 70
0
  0
VERTEX
  8
1
 10
16.5100
 20
26.7716
 30
0.0000
 42
1.0000
  0
VERTEX
  8
1
 10
16.5100
 20
26.5684
 30
0.0000
  0
SEQEND
  8
0
  0
POLYLINE
  8
1
 66
1
 10
0.0000
 20
0.0000
 30
0.0000
 40
0.2032
 41
0.2032
 70
0
  0
VERTEX
  8
1
 10
22.7965
 20
26.5684
 30
0.0000
 42
1.0000
  0
VERTEX
  8
1
 10
22.7965
 20
26.7716
 30
0.0000
  0
SEQEND
  8
0
  0
POLYLINE
  8
1
 66
1
 10
0.0000
 20
0.0000
 30
0.0000
 40
0.4064
 41
0.4064
 70
0
  0
VERTEX
  8
1
 10
16.5100
 20
26.6700
 30
0.0000
  0
VERTEX
  8
1
 10
16.5100
 20
31.6230
 30
0.0000
  0
SEQEND
  8
0
  0
POLYLINE
  8
1
 66
1
 10
0.0000
 20
0.0000
 30
0.0000
 40
0.2032
 41
0.2032
 70
0
  0
VERTEX
  8
1
 10
16.6116
 20
31.6230
 30
0.0000
 42
1.0000
  0
VERTEX
  8
1
 10
16.4084
 20
31.6230
 30
0.0000
  0
SEQEND
  8
0
  0
POLYLINE
  8
1
 66
1
 10
0.0000
 20
0.0000
 30
0.0000
 40
0.2032
 41
0.2032
 70
0
  0
VERTEX
  8
1
 10
16.4084
 20
26.6700
 30
0.0000
 42
1.0000
  0
VERTEX
  8
1
 10
16.6116
 20
26.6700
 30
0.0000
  0
SEQEND
  8
0
  0
POLYLINE
  8
1
 66
1
 10
0.0000
 20
0.0000
 30
0.0000
 40
0.4064
 41
0.4064
 70
0
  0
VERTEX
  8
1
 10
16.5100
 20
31.6230
 30
0.0000
  0
VERTEX
  8
1
 10
12.7470
 20
31.6230
 30
0.0000
  0
SEQEND
  8
0
  0
POLYLINE
  8
1
 66
1
 10
0.0000
 20
0.0000
 30
0.0000
 40
0.2032
 41
0.2032
 70
0
  0
VERTEX
  8
1
 10
12.7470
 20
31.7246
 30
0.0000
 42
1.0000
  0
VERTEX
  8
1
 10
12.7470
 20
31.5214
 30
0.0000
  0
SEQEND
  8
0
  0
POLYLINE
  8
1
 66
1
 10
0.0000
 20
0.0000
 30
0.0000
 40
0.2032
 41
0.2032
 70
0
  0
VERTEX
  8
1
 10
16.5100
 20
31.5214
 30
0.0000
 42
1.0000
  0
VERTEX
  8
1
 10
16.5100
 20
31.7246
 30
0.0000
  0
SEQEND
  8
0
  0
POLYLINE
  8
1
 66
1
 10
0.0000
 20
0.0000
 30
0.0000
 40
0.4064
 41
0.4064
 70
0
  0
VERTEX
  8
1
 10
12.7470
 20
31.6230
 30
0.0000
  0
VERTEX
  8
1
 10
12.7000
 20
31.6700
 30
0.0000
  0
SEQEND
  8
0
  0
POLYLINE
  8
1
 66
1
 10
0.0000
 20
0.0000
 30
0.0000
 40
0.2032
 41
0.2032
 70
0
  0
VERTEX
  8
1
 10
12.7718
 20
31.7418
 30
0.0000
 42
1.0000
  0
VERTEX
  8
1
 10
12.6282
 20
31.5982
 30
0.0000
  0
SEQEND
  8
0
  0
POLYLINE
  8
1
 66
1
 10
0.0000
 20
0.0000
 30
0.0000
 40
0.2032
 41
0.2032
 70
0
  0
VERTEX
  8
1
 10
12.6752
 20
31.5512
 30
0.0000
 42
1.0000
  0
VERTEX
  8
1
 10
12.8188
 20
31.6948
 30
0.0000
  0
SEQEND
  8
0
  0
POLYLINE
  8
1
 66
1
 10
0.0000
 20
0.0000
 30
0.0000
 40
0.4064
 41
0.4064
 70
0
  0
VERTEX
  8
1
 10
12.7000
 20
34.3700
 30
0.0000
  0
VERTEX
  8
1
 10
12.7800
 20
34.2900
 30
0.0000
  0
SEQEND
  8
0
  0
POLYLINE
  8
1
 66
1
 10
0.0000
 20
0.0000
 30
0.0000
 40
0.2032
 41
0.2032
 70
0
  0
VERTEX
  8
1
 10
12.7082
 20
34.2182
 30
0.0000
 42
1.0000
  0
VERTEX
  8
1
 10
12.8518
 20
34.3618
 30
0.0000
  0
SEQEND
  8
0
  0
POLYLINE
  8
1
 66
1
 10
0.0000
 20
0.0000
 30
0.0000
 40
0.2032
 41
0.2032
 70
0
  0
VERTEX
  8
1
 10
12.7718
 20
34.4418
 30
0.0000
 42
1.0000
  0
VERTEX
  8
1
 10
12.6282
 20
34.2982
 30
0.0000
  0
SEQEND
  8
0
  0
POLYLINE
  8
1
 66
1
 10
0.0000
 20
0.0000
 30
0.0000
 40
0.4064
 41
0.4064
 70
0
  0
VERTEX
  8
1
 10
12.7800
 20
34.2900
 30
0.0000
  0
VERTEX
  8
1
 10
17.7800
 20
34.2900
 30
0.0000
  0
SEQEND
  8
0
  0
POLYLINE
  8
1
 66
1
 10
0.0000
 20
0.0000
 30
0.0000
 40
0.2032
 41
0.2032
 70
0
  0
VERTEX
  8
1
 10
17.7800
 20
34.1884
 30
0.0000
 42
1.0000
  0
VERTEX
  8
1
 10
17.7800
 20
34.3916
 30
0.0000
  0
SEQEND
  8
0
  0
POLYLINE
  8
1
 66
1
 10
0.0000
 20
0.0000
 30
0.0000
 40
0.2032
 41
0.2032
 70
0
  0
VERTEX
  8
1
 10
12.7800
 20
34.3916
 30
0.0000
 42
1.0000
  0
VERTEX
  8
1
 10
12.7800
 20
34.1884
 30
0.0000
  0
SEQEND
  8
0
  0
POLYLINE
  8
1
 66
1
 10
0.0000
 20
0.0000
 30
0.0000
 40
0.4064
 41
0.4064
 70
0
  0
VERTEX
  8
1
 10
17.7800
 20
34.2900
 30
0.0000
  0
VERTEX
  8
1
 10
17.7800
 20
27.9400
 30
0.0000
  0
SEQEND
  8
0
  0
POLYLINE
  8
1
 66
1
 10
0.0000
 20
0.0000
 30
0.0000
 40
0.2032
 41
0.2032
 70
0
  0
VERTEX
  8
1
 10
17.6784
 20
27.9400
 30
0.0000
 42
1.0000
  0
VERTEX
  8
1
 10
17.8816
 20
27.9400
 30
0.0000
  0
SEQEND
  8
0
  0
POLYLINE
  8
1
 66
1
 10
0.0000
 20
0.0000
 30
0.0000
 40
0.2032
 41
0.2032
 70
0
  0
VERTEX
  8
1
 10
17.8816
 20
34.2900
 30
0.0000
 42
1.0000
  0
VERTEX
  8
1
 10
17.6784
 20
34.2900
 30
0.0000
  0
SEQEND
  8
0
  0
POLYLINE
  8
1
 66
1
 10
0.0000
 20
0.0000
 30
0.0000
 40
0.4064
 41
0.4064
 70
0
  0
VERTEX
  8
1
 10
17.7800
 20
27.9400
 30
0.0000
  0
VERTEX
  8
1
 10
22.7965
 20
27.9400
 30
0.0000
  0
SEQEND
  8
0
  0
POLYLINE
  8
1
 66
1
 10
0.0000
 20
0.0000
 30
0.0000
 40
0.2032
 41
0.2032
 70
0
  0
VERTEX
  8
1
 10
22.7965
 20
27.8384
 30
0.0000
 42
1.0000
  0
VERTEX
  8
1
 10
22.7965
 20
28.0416
 30
0.0000
  0
SEQEND
  8
0
  0
POLYLINE
  8
1
 66
1
 10
0.0000
 20
0.0000
 30
0.0000
 40
0.2032
 41
0.2032
 70
0
  0
VERTEX
  8
1
 10
17.7800
 20
28.0416
 30
0.0000
 42
1.0000
  0
VERTEX
  8
1
 10
17.7800
 20
27.8384
 30
0.0000
  0
SEQEND
  8
0
  0
POLYLINE
  8
1
 66
1
 10
0.0000
 20
0.0000
 30
0.0000
 40
0.4064
 41
0.4064
 70
0
  0
VERTEX
  8
1
 10
22.8600
 20
13.9700
 30
0.0000
  0
VERTEX
  8
1
 10
22.8600
 20
19.0500
 30
0.0000
  0
SEQEND
  8
0
  0
POLYLINE
  8
1
 66
1
 10
0.0000
 20
0.0000
 30
0.0000
 40
0.2032
 41
0.2032
 70
0
  0
VERTEX
  8
1
 10
22.9616
 20
19.0500
 30
0.0000
 42
1.0000
  0
VERTEX
  8
1
 10
22.7584
 20
19.0500
 30
0.0000
  0
SEQEND
  8
0
  0
POLYLINE
  8
1
 66
1
 10
0.0000
 20
0.0000
 30
0.0000
 40
0.2032
 41
0.2032
 70
0
  0
VERTEX
  8
1
 10
22.7584
 20
13.9700
 30
0.0000
 42
1.0000
  0
VERTEX
  8
1
 10
22.9616
 20
13.9700
 30
0.0000
  0
SEQEND
  8
0
  0
POLYLINE
  8
1
 66
1
 10
0.0000
 20
0.0000
 30
0.0000
 40
0.4064
 41
0.4064
 70
0
  0
VERTEX
  8
1
 10
23.1390
 20
36.7030
 30
0.0000
  0
VERTEX
  8
1
 10
23.0120
 20
36.8300
 30
0.0000
  0
SEQEND
  8
0
  0
POLYLINE
  8
1
 66
1
 10
0.0000
 20
0.0000
 30
0.0000
 40
0.2032
 41
0.2032
 70
0
  0
VERTEX
  8
1
 10
23.0838
 20
36.9018
 30
0.0000
 42
1.0000
  0
VERTEX
  8
1
 10
22.9402
 20
36.7582
 30
0.0000
  0
SEQEND
  8
0
  0
POLYLINE
  8
1
 66
1
 10
0.0000
 20
0.0000
 30
0.0000
 40
0.2032
 41
0.2032
 70
0
  0
VERTEX
  8
1
 10
23.0672
 20
36.6312
 30
0.0000
 42
1.0000
  0
VERTEX
  8
1
 10
23.2108
 20
36.7748
 30
0.0000
  0
SEQEND
  8
0
  0
POLYLINE
  8
1
 66
1
 10
0.0000
 20
0.0000
 30
0.0000
 40
0.4064
 41
0.4064
 70
0
  0
VERTEX
  8
1
 10
22.8600
 20
19.0500
 30
0.0000
  0
VERTEX
  8
1
 10
24.5110
 20
19.0500
 30
0.0000
  0
SEQEND
  8
0
  0
POLYLINE
  8
1
 66
1
 10
0.0000
 20
0.0000
 30
0.0000
 40
0.2032
 41
0.2032
 70
0
  0
VERTEX
  8
1
 10
24.5110
 20
18.9484
 30
0.0000
 42
1.0000
  0
VERTEX
  8
1
 10
24.5110
 20
19.1516
 30
0.0000
  0
SEQEND
  8
0
  0
POLYLINE
  8
1
 66
1
 10
0.0000
 20
0.0000
 30
0.0000
 40
0.2032
 41
0.2032
 70
0
  0
VERTEX
  8
1
 10
22.8600
 20
19.1516
 30
0.0000
 42
1.0000
  0
VERTEX
  8
1
 10
22.8600
 20
18.9484
 30
0.0000
  0
SEQEND
  8
0
  0
POLYLINE
  8
1
 66
1
 10
0.0000
 20
0.0000
 30
0.0000
 40
0.4064
 41
0.4064
 70
0
  0
VERTEX
  8
1
 10
24.5110
 20
19.0500
 30
0.0000
  0
VERTEX
  8
1
 10
24.5110
 20
25.4000
 30
0.0000
  0
SEQEND
  8
0
  0
POLYLINE
  8
1
 66
1
 10
0.0000
 20
0.0000
 30
0.0000
 40
0.2032
 41
0.2032
 70
0
  0
VERTEX
  8
1
 10
24.6126
 20
25.4000
 30
0.0000
 42
1.0000
  0
VERTEX
  8
1
 10
24.4094
 20
25.4000
 30
0.0000
  0
SEQEND
  8
0
  0
POLYLINE
  8
1
 66
1
 10
0.0000
 20
0.0000
 30
0.0000
 40
0.2032
 41
0.2032
 70
0
  0
VERTEX
  8
1
 10
24.4094
 20
19.0500
 30
0.0000
 42
1.0000
  0
VERTEX
  8
1
 10
24.6126
 20
19.0500
 30
0.0000
  0
SEQEND
  8
0
  0
POLYLINE
  8
1
 66
1
 10
0.0000
 20
0.0000
 30
0.0000
 40
0.4064
 41
0.4064
 70
0
  0
VERTEX
  8
1
 10
24.5110
 20
25.4000
 30
0.0000
  0
VERTEX
  8
1
 10
24.5110
 20
36.8300
 30
0.0000
  0
SEQEND
  8
0
  0
POLYLINE
  8
1
 66
1
 10
0.0000
 20
0.0000
 30
0.0000
 40
0.2032
 41
0.2032
 70
0
  0
VERTEX
  8
1
 10
24.6126
 20
36.8300
 30
0.0000
 42
1.0000
  0
VERTEX
  8
1
 10
24.4094
 20
36.8300
 30
0.0000
  0
SEQEND
  8
0
  0
POLYLINE
  8
1
 66
1
 10
0.0000
 20
0.0000
 30
0.0000
 40
0.2032
 41
0.2032
 70
0
  0
VERTEX
  8
1
 10
24.4094
 20
25.4000
 30
0.0000
 42
1.0000
  0
VERTEX
  8
1
 10
24.6126
 20
25.4000
 30
0.0000
  0
SEQEND
  8
0
  0
POLYLINE
  8
1
 66
1
 10
0.0000
 20
0.0000
 30
0.0000
 40
0.4064
 41
0.4064
 70
0
  0
VERTEX
  8
1
 10
24.5110
 20
36.8300
 30
0.0000
  0
VERTEX
  8
1
 10
23.0120
 20
36.8300
 30
0.0000
  0
SEQEND
  8
0
  0
POLYLINE
  8
1
 66
1
 10
0.0000
 20
0.0000
 30
0.0000
 40
0.2032
 41
0.2032
 70
0
  0
VERTEX
  8
1
 10
23.0120
 20
36.9316
 30
0.0000
 42
1.0000
  0
VERTEX
  8
1
 10
23.0120
 20
36.7284
 30
0.0000
  0
SEQEND
  8
0
  0
POLYLINE
  8
1
 66
1
 10
0.0000
 20
0.0000
 30
0.0000
 40
0.2032
 41
0.2032
 70
0
  0
VERTEX
  8
1
 10
24.5110
 20
36.7284
 30
0.0000
 42
1.0000
  0
VERTEX
  8
1
 10
24.5110
 20
36.9316
 30
0.0000
  0
SEQEND
  8
0
  0
POLYLINE
  8
1
 66
1
 10
0.0000
 20
0.0000
 30
0.0000
 40
0.4064
 41
0.4064
 70
0
  0
VERTEX
  8
1
 10
22.7965
 20
25.4000
 30
0.0000
  0
VERTEX
  8
1
 10
24.5110
 20
25.4000
 30
0.0000
  0
SEQEND
  8
0
  0
POLYLINE
  8
1
 66
1
 10
0.0000
 20
0.0000
 30
0.0000
 40
0.2032
 41
0.2032
 70
0
  0
VERTEX
  8
1
 10
24.5110
 20
25.2984
 30
0.0000
 42
1.0000
  0
VERTEX
  8
1
 10
24.5110
 20
25.5016
 30
0.0000
  0
SEQEND
  8
0
  0
POLYLINE
  8
1
 66
1
 10
0.0000
 20
0.0000
 30
0.0000
 40
0.2032
 41
0.2032
 70
0
  0
VERTEX
  8
1
 10
22.7965
 20
25.5016
 30
0.0000
 42
1.0000
  0
VERTEX
  8
1
 10
22.7965
 20
25.2984
 30
0.0000
  0
SEQEND
  8
0
  0
POLYLINE
  8
1
 66
1
 10
0.0000
 20
0.0000
 30
0.0000
 40
0.4064
 41
0.4064
 70
0
  0
VERTEX
  8
1
 10
16.0020
 20
18.7960
 30
0.0000
  0
VERTEX
  8
1
 10
16.5100
 20
19.3040
 30
0.0000
  0
SEQEND
  8
0
  0
POLYLINE
  8
1
 66
1
 10
0.0000
 20
0.0000
 30
0.0000
 40
0.2032
 41
0.2032
 70
0
  0
VERTEX
  8
1
 10
16.5818
 20
19.2322
 30
0.0000
 42
1.0000
  0
VERTEX
  8
1
 10
16.4382
 20
19.3758
 30
0.0000
  0
SEQEND
  8
0
  0
POLYLINE
  8
1
 66
1
 10
0.0000
 20
0.0000
 30
0.0000
 40
0.2032
 41
0.2032
 70
0
  0
VERTEX
  8
1
 10
15.9302
 20
18.8678
 30
0.0000
 42
1.0000
  0
VERTEX
  8
1
 10
16.0738
 20
18.7242
 30
0.0000
  0
SEQEND
  8
0
  0
POLYLINE
  8
1
 66
1
 10
0.0000
 20
0.0000
 30
0.0000
 40
0.4064
 41
0.4064
 70
0
  0
VERTEX
  8
1
 10
16.5100
 20
19.3040
 30
0.0000
  0
VERTEX
  8
1
 10
16.5100
 20
22.8600
 30
0.0000
  0
SEQEND
  8
0
  0
POLYLINE
  8
1
 66
1
 10
0.0000
 20
0.0000
 30
0.0000
 40
0.2032
 41
0.2032
 70
0
  0
VERTEX
  8
1
 10
16.6116
 20
22.8600
 30
0.0000
 42
1.0000
  0
VERTEX
  8
1
 10
16.4084
 20
22.8600
 30
0.0000
  0
SEQEND
  8
0
  0
POLYLINE
  8
1
 66
1
 10
0.0000
 20
0.0000
 30
0.0000
 40
0.2032
 41
0.2032
 70
0
  0
VERTEX
  8
1
 10
16.4084
 20
19.3040
 30
0.0000
 42
1.0000
  0
VERTEX
  8
1
 10
16.6116
 20
19.3040
 30
0.0000
  0
SEQEND
  8
0
  0
POLYLINE
  8
1
 66
1
 10
0.0000
 20
0.0000
 30
0.0000
 40
0.4064
 41
0.4064
 70
0
  0
VERTEX
  8
1
 10
16.5100
 20
22.8600
 30
0.0000
  0
VERTEX
  8
1
 10
22.7965
 20
22.8600
 30
0.0000
  0
SEQEND
  8
0
  0
POLYLINE
  8
1
 66
1
 10
0.0000
 20
0.0000
 30
0.0000
 40
0.2032
 41
0.2032
 70
0
  0
VERTEX
  8
1
 10
22.7965
 20
22.7584
 30
0.0000
 42
1.0000
  0
VERTEX
  8
1
 10
22.7965
 20
22.9616
 30
0.0000
  0
SEQEND
  8
0
  0
POLYLINE
  8
1
 66
1
 10
0.0000
 20
0.0000
 30
0.0000
 40
0.2032
 41
0.2032
 70
0
  0
VERTEX
  8
1
 10
16.5100
 20
22.9616
 30
0.0000
 42
1.0000
  0
VERTEX
  8
1
 10
16.5100
 20
22.7584
 30
0.0000
  0
SEQEND
  8
0
  0
POLYLINE
  8
1
 66
1
 10
0.0000
 20
0.0000
 30
0.0000
 40
0.4064
 41
0.4064
 70
0
  0
VERTEX
  8
1
 10
22.7965
 20
24.1300
 30
0.0000
  0
VERTEX
  8
1
 10
15.2400
 20
24.1300
 30
0.0000
  0
SEQEND
  8
0
  0
POLYLINE
  8
1
 66
1
 10
0.0000
 20
0.0000
 30
0.0000
 40
0.2032
 41
0.2032
 70
0
  0
VERTEX
  8
1
 10
15.2400
 20
24.2316
 30
0.0000
 42
1.0000
  0
VERTEX
  8
1
 10
15.2400
 20
24.0284
 30
0.0000
  0
SEQEND
  8
0
  0
POLYLINE
  8
1
 66
1
 10
0.0000
 20
0.0000
 30
0.0000
 40
0.2032
 41
0.2032
 70
0
  0
VERTEX
  8
1
 10
22.7965
 20
24.0284
 30
0.0000
 42
1.0000
  0
VERTEX
  8
1
 10
22.7965
 20
24.2316
 30
0.0000
  0
SEQEND
  8
0
  0
POLYLINE
  8
1
 66
1
 10
0.0000
 20
0.0000
 30
0.0000
 40
0.4064
 41
0.4064
 70
0
  0
VERTEX
  8
1
 10
15.2400
 20
24.1300
 30
0.0000
  0
VERTEX
  8
1
 10
15.2400
 20
29.8450
 30
0.0000
  0
SEQEND
  8
0
  0
POLYLINE
  8
1
 66
1
 10
0.0000
 20
0.0000
 30
0.0000
 40
0.2032
 41
0.2032
 70
0
  0
VERTEX
  8
1
 10
15.3416
 20
29.8450
 30
0.0000
 42
1.0000
  0
VERTEX
  8
1
 10
15.1384
 20
29.8450
 30
0.0000
  0
SEQEND
  8
0
  0
POLYLINE
  8
1
 66
1
 10
0.0000
 20
0.0000
 30
0.0000
 40
0.2032
 41
0.2032
 70
0
  0
VERTEX
  8
1
 10
15.1384
 20
24.1300
 30
0.0000
 42
1.0000
  0
VERTEX
  8
1
 10
15.3416
 20
24.1300
 30
0.0000
  0
SEQEND
  8
0
  0
POLYLINE
  8
1
 66
1
 10
0.0000
 20
0.0000
 30
0.0000
 40
0.4064
 41
0.4064
 70
0
  0
VERTEX
  8
1
 10
15.2400
 20
29.8450
 30
0.0000
  0
VERTEX
  8
1
 10
8.7630
 20
29.8450
 30
0.0000
  0
SEQEND
  8
0
  0
POLYLINE
  8
1
 66
1
 10
0.0000
 20
0.0000
 30
0.0000
 40
0.2032
 41
0.2032
 70
0
  0
VERTEX
  8
1
 10
8.7630
 20
29.9466
 30
0.0000
 42
1.0000
  0
VERTEX
  8
1
 10
8.7630
 20
29.7434
 30
0.0000
  0
SEQEND
  8
0
  0
POLYLINE
  8
1
 66
1
 10
0.0000
 20
0.0000
 30
0.0000
 40
0.2032
 41
0.2032
 70
0
  0
VERTEX
  8
1
 10
15.2400
 20
29.7434
 30
0.0000
 42
1.0000
  0
VERTEX
  8
1
 10
15.2400
 20
29.9466
 30
0.0000
  0
SEQEND
  8
0
  0
POLYLINE
  8
1
 66
1
 10
0.0000
 20
0.0000
 30
0.0000
 40
0.4064
 41
0.4064
 70
0
  0
VERTEX
  8
1
 10
8.7630
 20
29.8450
 30
0.0000
  0
VERTEX
  8
1
 10
8.7380
 20
29.8200
 30
0.0000
  0
SEQEND
  8
0
  0
POLYLINE
  8
1
 66
1
 10
0.0000
 20
0.0000
 30
0.0000
 40
0.2032
 41
0.2032
 70
0
  0
VERTEX
  8
1
 10
8.6662
 20
29.8918
 30
0.0000
 42
1.0000
  0
VERTEX
  8
1
 10
8.8098
 20
29.7482
 30
0.0000
  0
SEQEND
  8
0
  0
POLYLINE
  8
1
 66
1
 10
0.0000
 20
0.0000
 30
0.0000
 40
0.2032
 41
0.2032
 70
0
  0
VERTEX
  8
1
 10
8.8348
 20
29.7732
 30
0.0000
 42
1.0000
  0
VERTEX
  8
1
 10
8.6912
 20
29.9168
 30
0.0000
  0
SEQEND
  8
0
  0
POLYLINE
  8
1
 66
1
 10
0.0000
 20
0.0000
 30
0.0000
 40
0.4064
 41
0.4064
 70
0
  0
VERTEX
  8
1
 10
8.7380
 20
29.8200
 30
0.0000
  0
VERTEX
  8
1
 10
8.7380
 20
27.9400
 30
0.0000
  0
SEQEND
  8
0
  0
POLYLINE
  8
1
 66
1
 10
0.0000
 20
0.0000
 30
0.0000
 40
0.2032
 41
0.2032
 70
0
  0
VERTEX
  8
1
 10
8.6364
 20
27.9400
 30
0.0000
 42
1.0000
  0
VERTEX
  8
1
 10
8.8396
 20
27.9400
 30
0.0000
  0
SEQEND
  8
0
  0
POLYLINE
  8
1
 66
1
 10
0.0000
 20
0.0000
 30
0.0000
 40
0.2032
 41
0.2032
 70
0
  0
VERTEX
  8
1
 10
8.8396
 20
29.8200
 30
0.0000
 42
1.0000
  0
VERTEX
  8
1
 10
8.6364
 20
29.8200
 30
0.0000
  0
SEQEND
  8
0
  0
POLYLINE
  8
1
 66
1
 10
0.0000
 20
0.0000
 30
0.0000
 40
0.4064
 41
0.4064
 70
0
  0
VERTEX
  8
1
 10
25.4000
 20
8.5100
 30
0.0000
  0
VERTEX
  8
1
 10
25.4000
 20
9.2710
 30
0.0000
  0
SEQEND
  8
0
  0
POLYLINE
  8
1
 66
1
 10
0.0000
 20
0.0000
 30
0.0000
 40
0.2032
 41
0.2032
 70
0
  0
VERTEX
  8
1
 10
25.5016
 20
9.2710
 30
0.0000
 42
1.0000
  0
VERTEX
  8
1
 10
25.2984
 20
9.2710
 30
0.0000
  0
SEQEND
  8
0
  0
POLYLINE
  8
1
 66
1
 10
0.0000
 20
0.0000
 30
0.0000
 40
0.2032
 41
0.2032
 70
0
  0
VERTEX
  8
1
 10
25.2984
 20
8.5100
 30
0.0000
 42
1.0000
  0
VERTEX
  8
1
 10
25.5016
 20
8.5100
 30
0.0000
  0
SEQEND
  8
0
  0
POLYLINE
  8
1
 66
1
 10
0.0000
 20
0.0000
 30
0.0000
 40
0.4064
 41
0.4064
 70
0
  0
VERTEX
  8
1
 10
20.3200
 20
21.5900
 30
0.0000
  0
VERTEX
  8
1
 10
22.7965
 20
21.5900
 30
0.0000
  0
SEQEND
  8
0
  0
POLYLINE
  8
1
 66
1
 10
0.0000
 20
0.0000
 30
0.0000
 40
0.2032
 41
0.2032
 70
0
  0
VERTEX
  8
1
 10
22.7965
 20
21.4884
 30
0.0000
 42
1.0000
  0
VERTEX
  8
1
 10
22.7965
 20
21.6916
 30
0.0000
  0
SEQEND
  8
0
  0
POLYLINE
  8
1
 66
1
 10
0.0000
 20
0.0000
 30
0.0000
 40
0.2032
 41
0.2032
 70
0
  0
VERTEX
  8
1
 10
20.3200
 20
21.6916
 30
0.0000
 42
1.0000
  0
VERTEX
  8
1
 10
20.3200
 20
21.4884
 30
0.0000
  0
SEQEND
  8
0
  0
POLYLINE
  8
1
 66
1
 10
0.0000
 20
0.0000
 30
0.0000
 40
0.4064
 41
0.4064
 70
0
  0
VERTEX
  8
1
 10
20.3200
 20
10.6680
 30
0.0000
  0
VERTEX
  8
1
 10
20.3200
 20
21.5900
 30
0.0000
  0
SEQEND
  8
0
  0
POLYLINE
  8
1
 66
1
 10
0.0000
 20
0.0000
 30
0.0000
 40
0.2032
 41
0.2032
 70
0
  0
VERTEX
  8
1
 10
20.4216
 20
21.5900
 30
0.0000
 42
1.0000
  0
VERTEX
  8
1
 10
20.2184
 20
21.5900
 30
0.0000
  0
SEQEND
  8
0
  0
POLYLINE
  8
1
 66
1
 10
0.0000
 20
0.0000
 30
0.0000
 40
0.2032
 41
0.2032
 70
0
  0
VERTEX
  8
1
 10
20.2184
 20
10.6680
 30
0.0000
 42
1.0000
  0
VERTEX
  8
1
 10
20.4216
 20
10.6680
 30
0.0000
  0
SEQEND
  8
0
  0
POLYLINE
  8
1
 66
1
 10
0.0000
 20
0.0000
 30
0.0000
 40
0.4064
 41
0.4064
 70
0
  0
VERTEX
  8
1
 10
25.4000
 20
10.5410
 30
0.0000
  0
VERTEX
  8
1
 10
20.4470
 20
10.5410
 30
0.0000
  0
SEQEND
  8
0
  0
POLYLINE
  8
1
 66
1
 10
0.0000
 20
0.0000
 30
0.0000
 40
0.2032
 41
0.2032
 70
0
  0
VERTEX
  8
1
 10
20.4470
 20
10.6426
 30
0.0000
 42
1.0000
  0
VERTEX
  8
1
 10
20.4470
 20
10.4394
 30
0.0000
  0
SEQEND
  8
0
  0
POLYLINE
  8
1
 66
1
 10
0.0000
 20
0.0000
 30
0.0000
 40
0.2032
 41
0.2032
 70
0
  0
VERTEX
  8
1
 10
25.4000
 20
10.4394
 30
0.0000
 42
1.0000
  0
VERTEX
  8
1
 10
25.4000
 20
10.6426
 30
0.0000
  0
SEQEND
  8
0
  0
POLYLINE
  8
1
 66
1
 10
0.0000
 20
0.0000
 30
0.0000
 40
0.4064
 41
0.4064
 70
0
  0
VERTEX
  8
1
 10
20.4470
 20
10.5410
 30
0.0000
  0
VERTEX
  8
1
 10
20.3200
 20
10.6680
 30
0.0000
  0
SEQEND
  8
0
  0
POLYLINE
  8
1
 66
1
 10
0.0000
 20
0.0000
 30
0.0000
 40
0.2032
 41
0.2032
 70
0
  0
VERTEX
  8
1
 10
20.3918
 20
10.7398
 30
0.0000
 42
1.0000
  0
VERTEX
  8
1
 10
20.2482
 20
10.5962
 30
0.0000
  0
SEQEND
  8
0
  0
POLYLINE
  8
1
 66
1
 10
0.0000
 20
0.0000
 30
0.0000
 40
0.2032
 41
0.2032
 70
0
  0
VERTEX
  8
1
 10
20.3752
 20
10.4692
 30
0.0000
 42
1.0000
  0
VERTEX
  8
1
 10
20.5188
 20
10.6128
 30
0.0000
  0
SEQEND
  8
0
  0
POLYLINE
  8
1
 66
1
 10
0.0000
 20
0.0000
 30
0.0000
 40
0.4064
 41
0.4064
 70
0
  0
VERTEX
  8
1
 10
25.4000
 20
8.5100
 30
0.0000
  0
VERTEX
  8
1
 10
25.4000
 20
10.5410
 30
0.0000
  0
SEQEND
  8
0
  0
POLYLINE
  8
1
 66
1
 10
0.0000
 20
0.0000
 30
0.0000
 40
0.2032
 41
0.2032
 70
0
  0
VERTEX
  8
1
 10
25.5016
 20
10.5410
 30
0.0000
 42
1.0000
  0
VERTEX
  8
1
 10
25.2984
 20
10.5410
 30
0.0000
  0
SEQEND
  8
0
  0
POLYLINE
  8
1
 66
1
 10
0.0000
 20
0.0000
 30
0.0000
 40
0.2032
 41
0.2032
 70
0
  0
VERTEX
  8
1
 10
25.2984
 20
8.5100
 30
0.0000
 42
1.0000
  0
VERTEX
  8
1
 10
25.5016
 20
8.5100
 30
0.0000
  0
SEQEND
  8
0
  0
POLYLINE
  8
1
 66
1
 10
0.0000
 20
0.0000
 30
0.0000
 40
0.4064
 41
0.4064
 70
0
  0
VERTEX
  8
1
 10
27.9400
 20
13.9700
 30
0.0000
  0
VERTEX
  8
1
 10
27.9400
 20
18.9865
 30
0.0000
  0
SEQEND
  8
0
  0
POLYLINE
  8
1
 66
1
 10
0.0000
 20
0.0000
 30
0.0000
 40
0.2032
 41
0.2032
 70
0
  0
VERTEX
  8
1
 10
28.0416
 20
18.9865
 30
0.0000
 42
1.0000
  0
VERTEX
  8
1
 10
27.8384
 20
18.9865
 30
0.0000
  0
SEQEND
  8
0
  0
POLYLINE
  8
1
 66
1
 10
0.0000
 20
0.0000
 30
0.0000
 40
0.2032
 41
0.2032
 70
0
  0
VERTEX
  8
1
 10
27.8384
 20
13.9700
 30
0.0000
 42
1.0000
  0
VERTEX
  8
1
 10
28.0416
 20
13.9700
 30
0.0000
  0
SEQEND
  8
0
  0
POLYLINE
  8
1
 66
1
 10
0.0000
 20
0.0000
 30
0.0000
 40
0.4064
 41
0.4064
 70
0
  0
VERTEX
  8
1
 10
27.9400
 20
18.9865
 30
0.0000
  0
VERTEX
  8
1
 10
28.0035
 20
21.5900
 30
0.0000
  0
SEQEND
  8
0
  0
POLYLINE
  8
1
 66
1
 10
0.0000
 20
0.0000
 30
0.0000
 40
0.2032
 41
0.2032
 70
0
  0
VERTEX
  8
1
 10
28.1051
 20
21.5875
 30
0.0000
 42
1.0000
  0
VERTEX
  8
1
 10
27.9019
 20
21.5925
 30
0.0000
  0
SEQEND
  8
0
  0
POLYLINE
  8
1
 66
1
 10
0.0000
 20
0.0000
 30
0.0000
 40
0.2032
 41
0.2032
 70
0
  0
VERTEX
  8
1
 10
27.8384
 20
18.9890
 30
0.0000
 42
1.0000
  0
VERTEX
  8
1
 10
28.0416
 20
18.9840
 30
0.0000
  0
SEQEND
  8
0
  0
POLYLINE
  8
1
 66
1
 10
0.0000
 20
0.0000
 30
0.0000
 40
0.4064
 41
0.4064
 70
0
  0
VERTEX
  8
1
 10
28.0035
 20
22.8600
 30
0.0000
  0
VERTEX
  8
1
 10
26.2890
 20
22.8600
 30
0.0000
  0
SEQEND
  8
0
  0
POLYLINE
  8
1
 66
1
 10
0.0000
 20
0.0000
 30
0.0000
 40
0.2032
 41
0.2032
 70
0
  0
VERTEX
  8
1
 10
26.2890
 20
22.9616
 30
0.0000
 42
1.0000
  0
VERTEX
  8
1
 10
26.2890
 20
22.7584
 30
0.0000
  0
SEQEND
  8
0
  0
POLYLINE
  8
1
 66
1
 10
0.0000
 20
0.0000
 30
0.0000
 40
0.2032
 41
0.2032
 70
0
  0
VERTEX
  8
1
 10
28.0035
 20
22.7584
 30
0.0000
 42
1.0000
  0
VERTEX
  8
1
 10
28.0035
 20
22.9616
 30
0.0000
  0
SEQEND
  8
0
  0
POLYLINE
  8
1
 66
1
 10
0.0000
 20
0.0000
 30
0.0000
 40
0.4064
 41
0.4064
 70
0
  0
VERTEX
  8
1
 10
26.2890
 20
22.8600
 30
0.0000
  0
VERTEX
  8
1
 10
26.2890
 20
14.8590
 30
0.0000
  0
SEQEND
  8
0
  0
POLYLINE
  8
1
 66
1
 10
0.0000
 20
0.0000
 30
0.0000
 40
0.2032
 41
0.2032
 70
0
  0
VERTEX
  8
1
 10
26.1874
 20
14.8590
 30
0.0000
 42
1.0000
  0
VERTEX
  8
1
 10
26.3906
 20
14.8590
 30
0.0000
  0
SEQEND
  8
0
  0
POLYLINE
  8
1
 66
1
 10
0.0000
 20
0.0000
 30
0.0000
 40
0.2032
 41
0.2032
 70
0
  0
VERTEX
  8
1
 10
26.3906
 20
22.8600
 30
0.0000
 42
1.0000
  0
VERTEX
  8
1
 10
26.1874
 20
22.8600
 30
0.0000
  0
SEQEND
  8
0
  0
POLYLINE
  8
1
 66
1
 10
0.0000
 20
0.0000
 30
0.0000
 40
0.4064
 41
0.4064
 70
0
  0
VERTEX
  8
1
 10
26.2890
 20
14.8590
 30
0.0000
  0
VERTEX
  8
1
 10
25.4000
 20
13.9700
 30
0.0000
  0
SEQEND
  8
0
  0
POLYLINE
  8
1
 66
1
 10
0.0000
 20
0.0000
 30
0.0000
 40
0.2032
 41
0.2032
 70
0
  0
VERTEX
  8
1
 10
25.3282
 20
14.0418
 30
0.0000
 42
1.0000
  0
VERTEX
  8
1
 10
25.4718
 20
13.8982
 30
0.0000
  0
SEQEND
  8
0
  0
POLYLINE
  8
1
 66
1
 10
0.0000
 20
0.0000
 30
0.0000
 40
0.2032
 41
0.2032
 70
0
  0
VERTEX
  8
1
 10
26.3608
 20
14.7872
 30
0.0000
 42
1.0000
  0
VERTEX
  8
1
 10
26.2172
 20
14.9308
 30
0.0000
  0
SEQEND
  8
0
  0
POLYLINE
  8
1
 66
1
 10
0.0000
 20
0.0000
 30
0.0000
 40
0.4064
 41
0.4064
 70
0
  0
VERTEX
  8
1
 10
36.8300
 20
24.1300
 30
0.0000
  0
VERTEX
  8
1
 10
33.0200
 20
24.1300
 30
0.0000
  0
SEQEND
  8
0
  0
POLYLINE
  8
1
 66
1
 10
0.0000
 20
0.0000
 30
0.0000
 40
0.2032
 41
0.2032
 70
0
  0
VERTEX
  8
1
 10
33.0200
 20
24.2316
 30
0.0000
 42
1.0000
  0
VERTEX
  8
1
 10
33.0200
 20
24.0284
 30
0.0000
  0
SEQEND
  8
0
  0
POLYLINE
  8
1
 66
1
 10
0.0000
 20
0.0000
 30
0.0000
 40
0.2032
 41
0.2032
 70
0
  0
VERTEX
  8
1
 10
36.8300
 20
24.0284
 30
0.0000
 42
1.0000
  0
VERTEX
  8
1
 10
36.8300
 20
24.2316
 30
0.0000
  0
SEQEND
  8
0
  0
POLYLINE
  8
1
 66
1
 10
0.0000
 20
0.0000
 30
0.0000
 40
0.4064
 41
0.4064
 70
0
  0
VERTEX
  8
1
 10
33.0200
 20
24.1300
 30
0.0000
  0
VERTEX
  8
1
 10
33.0200
 20
26.6700
 30
0.0000
  0
SEQEND
  8
0
  0
POLYLINE
  8
1
 66
1
 10
0.0000
 20
0.0000
 30
0.0000
 40
0.2032
 41
0.2032
 70
0
  0
VERTEX
  8
1
 10
33.1216
 20
26.6700
 30
0.0000
 42
1.0000
  0
VERTEX
  8
1
 10
32.9184
 20
26.6700
 30
0.0000
  0
SEQEND
  8
0
  0
POLYLINE
  8
1
 66
1
 10
0.0000
 20
0.0000
 30
0.0000
 40
0.2032
 41
0.2032
 70
0
  0
VERTEX
  8
1
 10
32.9184
 20
24.1300
 30
0.0000
 42
1.0000
  0
VERTEX
  8
1
 10
33.1216
 20
24.1300
 30
0.0000
  0
SEQEND
  8
0
  0
POLYLINE
  8
1
 66
1
 10
0.0000
 20
0.0000
 30
0.0000
 40
0.4064
 41
0.4064
 70
0
  0
VERTEX
  8
1
 10
33.0200
 20
26.6700
 30
0.0000
  0
VERTEX
  8
1
 10
28.0035
 20
26.6700
 30
0.0000
  0
SEQEND
  8
0
  0
POLYLINE
  8
1
 66
1
 10
0.0000
 20
0.0000
 30
0.0000
 40
0.2032
 41
0.2032
 70
0
  0
VERTEX
  8
1
 10
28.0035
 20
26.7716
 30
0.0000
 42
1.0000
  0
VERTEX
  8
1
 10
28.0035
 20
26.5684
 30
0.0000
  0
SEQEND
  8
0
  0
POLYLINE
  8
1
 66
1
 10
0.0000
 20
0.0000
 30
0.0000
 40
0.2032
 41
0.2032
 70
0
  0
VERTEX
  8
1
 10
33.0200
 20
26.5684
 30
0.0000
 42
1.0000
  0
VERTEX
  8
1
 10
33.0200
 20
26.7716
 30
0.0000
  0
SEQEND
  8
0
  0
POLYLINE
  8
1
 66
1
 10
0.0000
 20
0.0000
 30
0.0000
 40
0.4064
 41
0.4064
 70
0
  0
VERTEX
  8
1
 10
36.8300
 20
26.6700
 30
0.0000
  0
VERTEX
  8
1
 10
34.2900
 20
26.6700
 30
0.0000
  0
SEQEND
  8
0
  0
POLYLINE
  8
1
 66
1
 10
0.0000
 20
0.0000
 30
0.0000
 40
0.2032
 41
0.2032
 70
0
  0
VERTEX
  8
1
 10
34.2900
 20
26.7716
 30
0.0000
 42
1.0000
  0
VERTEX
  8
1
 10
34.2900
 20
26.5684
 30
0.0000
  0
SEQEND
  8
0
  0
POLYLINE
  8
1
 66
1
 10
0.0000
 20
0.0000
 30
0.0000
 40
0.2032
 41
0.2032
 70
0
  0
VERTEX
  8
1
 10
36.8300
 20
26.5684
 30
0.0000
 42
1.0000
  0
VERTEX
  8
1
 10
36.8300
 20
26.7716
 30
0.0000
  0
SEQEND
  8
0
  0
POLYLINE
  8
1
 66
1
 10
0.0000
 20
0.0000
 30
0.0000
 40
0.4064
 41
0.4064
 70
0
  0
VERTEX
  8
1
 10
34.2900
 20
26.6700
 30
0.0000
  0
VERTEX
  8
1
 10
34.2900
 20
27.9400
 30
0.0000
  0
SEQEND
  8
0
  0
POLYLINE
  8
1
 66
1
 10
0.0000
 20
0.0000
 30
0.0000
 40
0.2032
 41
0.2032
 70
0
  0
VERTEX
  8
1
 10
34.3916
 20
27.9400
 30
0.0000
 42
1.0000
  0
VERTEX
  8
1
 10
34.1884
 20
27.9400
 30
0.0000
  0
SEQEND
  8
0
  0
POLYLINE
  8
1
 66
1
 10
0.0000
 20
0.0000
 30
0.0000
 40
0.2032
 41
0.2032
 70
0
  0
VERTEX
  8
1
 10
34.1884
 20
26.6700
 30
0.0000
 42
1.0000
  0
VERTEX
  8
1
 10
34.3916
 20
26.6700
 30
0.0000
  0
SEQEND
  8
0
  0
POLYLINE
  8
1
 66
1
 10
0.0000
 20
0.0000
 30
0.0000
 40
0.4064
 41
0.4064
 70
0
  0
VERTEX
  8
1
 10
34.2900
 20
27.9400
 30
0.0000
  0
VERTEX
  8
1
 10
28.0035
 20
27.9400
 30
0.0000
  0
SEQEND
  8
0
  0
POLYLINE
  8
1
 66
1
 10
0.0000
 20
0.0000
 30
0.0000
 40
0.2032
 41
0.2032
 70
0
  0
VERTEX
  8
1
 10
28.0035
 20
28.0416
 30
0.0000
 42
1.0000
  0
VERTEX
  8
1
 10
28.0035
 20
27.8384
 30
0.0000
  0
SEQEND
  8
0
  0
POLYLINE
  8
1
 66
1
 10
0.0000
 20
0.0000
 30
0.0000
 40
0.2032
 41
0.2032
 70
0
  0
VERTEX
  8
1
 10
34.2900
 20
27.8384
 30
0.0000
 42
1.0000
  0
VERTEX
  8
1
 10
34.2900
 20
28.0416
 30
0.0000
  0
SEQEND
  8
0
  0
POLYLINE
  8
1
 66
1
 10
0.0000
 20
0.0000
 30
0.0000
 40
0.4064
 41
0.4064
 70
0
  0
VERTEX
  8
1
 10
36.8300
 20
29.2100
 30
0.0000
  0
VERTEX
  8
1
 10
40.6400
 20
29.2100
 30
0.0000
  0
SEQEND
  8
0
  0
POLYLINE
  8
1
 66
1
 10
0.0000
 20
0.0000
 30
0.0000
 40
0.2032
 41
0.2032
 70
0
  0
VERTEX
  8
1
 10
40.6400
 20
29.1084
 30
0.0000
 42
1.0000
  0
VERTEX
  8
1
 10
40.6400
 20
29.3116
 30
0.0000
  0
SEQEND
  8
0
  0
POLYLINE
  8
1
 66
1
 10
0.0000
 20
0.0000
 30
0.0000
 40
0.2032
 41
0.2032
 70
0
  0
VERTEX
  8
1
 10
36.8300
 20
29.3116
 30
0.0000
 42
1.0000
  0
VERTEX
  8
1
 10
36.8300
 20
29.1084
 30
0.0000
  0
SEQEND
  8
0
  0
POLYLINE
  8
1
 66
1
 10
0.0000
 20
0.0000
 30
0.0000
 40
0.4064
 41
0.4064
 70
0
  0
VERTEX
  8
1
 10
40.6400
 20
29.2100
 30
0.0000
  0
VERTEX
  8
1
 10
40.6400
 20
39.3700
 30
0.0000
  0
SEQEND
  8
0
  0
POLYLINE
  8
1
 66
1
 10
0.0000
 20
0.0000
 30
0.0000
 40
0.2032
 41
0.2032
 70
0
  0
VERTEX
  8
1
 10
40.7416
 20
39.3700
 30
0.0000
 42
1.0000
  0
VERTEX
  8
1
 10
40.5384
 20
39.3700
 30
0.0000
  0
SEQEND
  8
0
  0
POLYLINE
  8
1
 66
1
 10
0.0000
 20
0.0000
 30
0.0000
 40
0.2032
 41
0.2032
 70
0
  0
VERTEX
  8
1
 10
40.5384
 20
29.2100
 30
0.0000
 42
1.0000
  0
VERTEX
  8
1
 10
40.7416
 20
29.2100
 30
0.0000
  0
SEQEND
  8
0
  0
POLYLINE
  8
1
 66
1
 10
0.0000
 20
0.0000
 30
0.0000
 40
0.4064
 41
0.4064
 70
0
  0
VERTEX
  8
1
 10
40.6400
 20
39.3700
 30
0.0000
  0
VERTEX
  8
1
 10
27.8130
 20
39.3700
 30
0.0000
  0
SEQEND
  8
0
  0
POLYLINE
  8
1
 66
1
 10
0.0000
 20
0.0000
 30
0.0000
 40
0.2032
 41
0.2032
 70
0
  0
VERTEX
  8
1
 10
27.8130
 20
39.4716
 30
0.0000
 42
1.0000
  0
VERTEX
  8
1
 10
27.8130
 20
39.2684
 30
0.0000
  0
SEQEND
  8
0
  0
POLYLINE
  8
1
 66
1
 10
0.0000
 20
0.0000
 30
0.0000
 40
0.2032
 41
0.2032
 70
0
  0
VERTEX
  8
1
 10
40.6400
 20
39.2684
 30
0.0000
 42
1.0000
  0
VERTEX
  8
1
 10
40.6400
 20
39.4716
 30
0.0000
  0
SEQEND
  8
0
  0
POLYLINE
  8
1
 66
1
 10
0.0000
 20
0.0000
 30
0.0000
 40
0.4064
 41
0.4064
 70
0
  0
VERTEX
  8
1
 10
27.8130
 20
39.3700
 30
0.0000
  0
VERTEX
  8
1
 10
27.8130
 20
36.8330
 30
0.0000
  0
SEQEND
  8
0
  0
POLYLINE
  8
1
 66
1
 10
0.0000
 20
0.0000
 30
0.0000
 40
0.2032
 41
0.2032
 70
0
  0
VERTEX
  8
1
 10
27.7114
 20
36.8330
 30
0.0000
 42
1.0000
  0
VERTEX
  8
1
 10
27.9146
 20
36.8330
 30
0.0000
  0
SEQEND
  8
0
  0
POLYLINE
  8
1
 66
1
 10
0.0000
 20
0.0000
 30
0.0000
 40
0.2032
 41
0.2032
 70
0
  0
VERTEX
  8
1
 10
27.9146
 20
39.3700
 30
0.0000
 42
1.0000
  0
VERTEX
  8
1
 10
27.7114
 20
39.3700
 30
0.0000
  0
SEQEND
  8
0
  0
POLYLINE
  8
1
 66
1
 10
0.0000
 20
0.0000
 30
0.0000
 40
0.4064
 41
0.4064
 70
0
  0
VERTEX
  8
1
 10
27.8130
 20
36.8330
 30
0.0000
  0
VERTEX
  8
1
 10
27.8100
 20
36.8300
 30
0.0000
  0
SEQEND
  8
0
  0
POLYLINE
  8
1
 66
1
 10
0.0000
 20
0.0000
 30
0.0000
 40
0.2032
 41
0.2032
 70
0
  0
VERTEX
  8
1
 10
27.7382
 20
36.9018
 30
0.0000
 42
1.0000
  0
VERTEX
  8
1
 10
27.8818
 20
36.7582
 30
0.0000
  0
SEQEND
  8
0
  0
POLYLINE
  8
1
 66
1
 10
0.0000
 20
0.0000
 30
0.0000
 40
0.2032
 41
0.2032
 70
0
  0
VERTEX
  8
1
 10
27.8848
 20
36.7612
 30
0.0000
 42
1.0000
  0
VERTEX
  8
1
 10
27.7412
 20
36.9048
 30
0.0000
  0
SEQEND
  8
0
  0
POLYLINE
  8
1
 66
1
 10
0.0000
 20
0.0000
 30
0.0000
 40
0.4064
 41
0.4064
 70
0
  0
VERTEX
  8
1
 10
22.7965
 20
29.2100
 30
0.0000
  0
VERTEX
  8
1
 10
20.3200
 20
29.2100
 30
0.0000
  0
SEQEND
  8
0
  0
POLYLINE
  8
1
 66
1
 10
0.0000
 20
0.0000
 30
0.0000
 40
0.2032
 41
0.2032
 70
0
  0
VERTEX
  8
1
 10
20.3200
 20
29.3116
 30
0.0000
 42
1.0000
  0
VERTEX
  8
1
 10
20.3200
 20
29.1084
 30
0.0000
  0
SEQEND
  8
0
  0
POLYLINE
  8
1
 66
1
 10
0.0000
 20
0.0000
 30
0.0000
 40
0.2032
 41
0.2032
 70
0
  0
VERTEX
  8
1
 10
22.7965
 20
29.1084
 30
0.0000
 42
1.0000
  0
VERTEX
  8
1
 10
22.7965
 20
29.3116
 30
0.0000
  0
SEQEND
  8
0
  0
POLYLINE
  8
1
 66
1
 10
0.0000
 20
0.0000
 30
0.0000
 40
0.4064
 41
0.4064
 70
0
  0
VERTEX
  8
1
 10
20.3200
 20
29.2100
 30
0.0000
  0
VERTEX
  8
1
 10
20.3200
 20
36.6780
 30
0.0000
  0
SEQEND
  8
0
  0
POLYLINE
  8
1
 66
1
 10
0.0000
 20
0.0000
 30
0.0000
 40
0.2032
 41
0.2032
 70
0
  0
VERTEX
  8
1
 10
20.4216
 20
36.6780
 30
0.0000
 42
1.0000
  0
VERTEX
  8
1
 10
20.2184
 20
36.6780
 30
0.0000
  0
SEQEND
  8
0
  0
POLYLINE
  8
1
 66
1
 10
0.0000
 20
0.0000
 30
0.0000
 40
0.2032
 41
0.2032
 70
0
  0
VERTEX
  8
1
 10
20.2184
 20
29.2100
 30
0.0000
 42
1.0000
  0
VERTEX
  8
1
 10
20.4216
 20
29.2100
 30
0.0000
  0
SEQEND
  8
0
  0
POLYLINE
  8
1
 66
1
 10
0.0000
 20
0.0000
 30
0.0000
 40
0.4064
 41
0.4064
 70
0
  0
VERTEX
  8
1
 10
20.3200
 20
36.6780
 30
0.0000
  0
VERTEX
  8
1
 10
20.1680
 20
36.8300
 30
0.0000
  0
SEQEND
  8
0
  0
POLYLINE
  8
1
 66
1
 10
0.0000
 20
0.0000
 30
0.0000
 40
0.2032
 41
0.2032
 70
0
  0
VERTEX
  8
1
 10
20.2398
 20
36.9018
 30
0.0000
 42
1.0000
  0
VERTEX
  8
1
 10
20.0962
 20
36.7582
 30
0.0000
  0
SEQEND
  8
0
  0
POLYLINE
  8
1
 66
1
 10
0.0000
 20
0.0000
 30
0.0000
 40
0.2032
 41
0.2032
 70
0
  0
VERTEX
  8
1
 10
20.2482
 20
36.6062
 30
0.0000
 42
1.0000
  0
VERTEX
  8
1
 10
20.3918
 20
36.7498
 30
0.0000
  0
SEQEND
  8
0
  0
POLYLINE
  8
1
 66
1
 10
0.0000
 20
0.0000
 30
0.0000
 40
0.4064
 41
0.4064
 70
0
  0
VERTEX
  8
1
 10
27.8130
 20
39.3700
 30
0.0000
  0
VERTEX
  8
1
 10
20.3200
 20
39.3700
 30
0.0000
  0
SEQEND
  8
0
  0
POLYLINE
  8
1
 66
1
 10
0.0000
 20
0.0000
 30
0.0000
 40
0.2032
 41
0.2032
 70
0
  0
VERTEX
  8
1
 10
20.3200
 20
39.4716
 30
0.0000
 42
1.0000
  0
VERTEX
  8
1
 10
20.3200
 20
39.2684
 30
0.0000
  0
SEQEND
  8
0
  0
POLYLINE
  8
1
 66
1
 10
0.0000
 20
0.0000
 30
0.0000
 40
0.2032
 41
0.2032
 70
0
  0
VERTEX
  8
1
 10
27.8130
 20
39.2684
 30
0.0000
 42
1.0000
  0
VERTEX
  8
1
 10
27.8130
 20
39.4716
 30
0.0000
  0
SEQEND
  8
0
  0
POLYLINE
  8
1
 66
1
 10
0.0000
 20
0.0000
 30
0.0000
 40
0.4064
 41
0.4064
 70
0
  0
VERTEX
  8
1
 10
20.3200
 20
39.3700
 30
0.0000
  0
VERTEX
  8
1
 10
20.3200
 20
36.6780
 30
0.0000
  0
SEQEND
  8
0
  0
POLYLINE
  8
1
 66
1
 10
0.0000
 20
0.0000
 30
0.0000
 40
0.2032
 41
0.2032
 70
0
  0
VERTEX
  8
1
 10
20.2184
 20
36.6780
 30
0.0000
 42
1.0000
  0
VERTEX
  8
1
 10
20.4216
 20
36.6780
 30
0.0000
  0
SEQEND
  8
0
  0
POLYLINE
  8
1
 66
1
 10
0.0000
 20
0.0000
 30
0.0000
 40
0.2032
 41
0.2032
 70
0
  0
VERTEX
  8
1
 10
20.4216
 20
39.3700
 30
0.0000
 42
1.0000
  0
VERTEX
  8
1
 10
20.2184
 20
39.3700
 30
0.0000
  0
SEQEND
  8
0
  0
POLYLINE
  8
1
 66
1
 10
0.0000
 20
0.0000
 30
0.0000
 40
0.4064
 41
0.4064
 70
0
  0
VERTEX
  8
1
 10
27.9400
 20
8.5100
 30
0.0000
  0
VERTEX
  8
1
 10
28.1300
 20
8.7000
 30
0.0000
  0
SEQEND
  8
0
  0
POLYLINE
  8
1
 66
1
 10
0.0000
 20
0.0000
 30
0.0000
 40
0.2032
 41
0.2032
 70
0
  0
VERTEX
  8
1
 10
28.2018
 20
8.6282
 30
0.0000
 42
1.0000
  0
VERTEX
  8
1
 10
28.0582
 20
8.7718
 30
0.0000
  0
SEQEND
  8
0
  0
POLYLINE
  8
1
 66
1
 10
0.0000
 20
0.0000
 30
0.0000
 40
0.2032
 41
0.2032
 70
0
  0
VERTEX
  8
1
 10
27.8682
 20
8.5818
 30
0.0000
 42
1.0000
  0
VERTEX
  8
1
 10
28.0118
 20
8.4382
 30
0.0000
  0
SEQEND
  8
0
  0
POLYLINE
  8
1
 66
1
 10
0.0000
 20
0.0000
 30
0.0000
 40
0.4064
 41
0.4064
 70
0
  0
VERTEX
  8
1
 10
28.1300
 20
8.7000
 30
0.0000
  0
VERTEX
  8
1
 10
28.3200
 20
8.8900
 30
0.0000
  0
SEQEND
  8
0
  0
POLYLINE
  8
1
 66
1
 10
0.0000
 20
0.0000
 30
0.0000
 40
0.2032
 41
0.2032
 70
0
  0
VERTEX
  8
1
 10
28.3918
 20
8.8182
 30
0.0000
 42
1.0000
  0
VERTEX
  8
1
 10
28.2482
 20
8.9618
 30
0.0000
  0
SEQEND
  8
0
  0
POLYLINE
  8
1
 66
1
 10
0.0000
 20
0.0000
 30
0.0000
 40
0.2032
 41
0.2032
 70
0
  0
VERTEX
  8
1
 10
28.0582
 20
8.7718
 30
0.0000
 42
1.0000
  0
VERTEX
  8
1
 10
28.2018
 20
8.6282
 30
0.0000
  0
SEQEND
  8
0
  0
POLYLINE
  8
1
 66
1
 10
0.0000
 20
0.0000
 30
0.0000
 40
0.4064
 41
0.4064
 70
0
  0
VERTEX
  8
1
 10
27.9400
 20
8.8900
 30
0.0000
  0
VERTEX
  8
1
 10
28.1300
 20
8.7000
 30
0.0000
  0
SEQEND
  8
0
  0
POLYLINE
  8
1
 66
1
 10
0.0000
 20
0.0000
 30
0.0000
 40
0.2032
 41
0.2032
 70
0
  0
VERTEX
  8
1
 10
28.0582
 20
8.6282
 30
0.0000
 42
1.0000
  0
VERTEX
  8
1
 10
28.2018
 20
8.7718
 30
0.0000
  0
SEQEND
  8
0
  0
POLYLINE
  8
1
 66
1
 10
0.0000
 20
0.0000
 30
0.0000
 40
0.2032
 41
0.2032
 70
0
  0
VERTEX
  8
1
 10
28.0118
 20
8.9618
 30
0.0000
 42
1.0000
  0
VERTEX
  8
1
 10
27.8682
 20
8.8182
 30
0.0000
  0
SEQEND
  8
0
  0
POLYLINE
  8
1
 66
1
 10
0.0000
 20
0.0000
 30
0.0000
 40
0.4064
 41
0.4064
 70
0
  0
VERTEX
  8
1
 10
27.9400
 20
8.5100
 30
0.0000
  0
VERTEX
  8
1
 10
27.9400
 20
8.8900
 30
0.0000
  0
SEQEND
  8
0
  0
POLYLINE
  8
1
 66
1
 10
0.0000
 20
0.0000
 30
0.0000
 40
0.2032
 41
0.2032
 70
0
  0
VERTEX
  8
1
 10
28.0416
 20
8.8900
 30
0.0000
 42
1.0000
  0
VERTEX
  8
1
 10
27.8384
 20
8.8900
 30
0.0000
  0
SEQEND
  8
0
  0
POLYLINE
  8
1
 66
1
 10
0.0000
 20
0.0000
 30
0.0000
 40
0.2032
 41
0.2032
 70
0
  0
VERTEX
  8
1
 10
27.8384
 20
8.5100
 30
0.0000
 42
1.0000
  0
VERTEX
  8
1
 10
28.0416
 20
8.5100
 30
0.0000
  0
SEQEND
  8
0
  0
POLYLINE
  8
1
 66
1
 10
0.0000
 20
0.0000
 30
0.0000
 40
0.4064
 41
0.4064
 70
0
  0
VERTEX
  8
1
 10
40.6400
 20
29.2100
 30
0.0000
  0
VERTEX
  8
1
 10
40.6400
 20
17.7800
 30
0.0000
  0
SEQEND
  8
0
  0
POLYLINE
  8
1
 66
1
 10
0.0000
 20
0.0000
 30
0.0000
 40
0.2032
 41
0.2032
 70
0
  0
VERTEX
  8
1
 10
40.5384
 20
17.7800
 30
0.0000
 42
1.0000
  0
VERTEX
  8
1
 10
40.7416
 20
17.7800
 30
0.0000
  0
SEQEND
  8
0
  0
POLYLINE
  8
1
 66
1
 10
0.0000
 20
0.0000
 30
0.0000
 40
0.2032
 41
0.2032
 70
0
  0
VERTEX
  8
1
 10
40.7416
 20
29.2100
 30
0.0000
 42
1.0000
  0
VERTEX
  8
1
 10
40.5384
 20
29.2100
 30
0.0000
  0
SEQEND
  8
0
  0
POLYLINE
  8
1
 66
1
 10
0.0000
 20
0.0000
 30
0.0000
 40
0.4064
 41
0.4064
 70
0
  0
VERTEX
  8
1
 10
40.6400
 20
17.7800
 30
0.0000
  0
VERTEX
  8
1
 10
33.0200
 20
17.7800
 30
0.0000
  0
SEQEND
  8
0
  0
POLYLINE
  8
1
 66
1
 10
0.0000
 20
0.0000
 30
0.0000
 40
0.2032
 41
0.2032
 70
0
  0
VERTEX
  8
1
 10
33.0200
 20
17.8816
 30
0.0000
 42
1.0000
  0
VERTEX
  8
1
 10
33.0200
 20
17.6784
 30
0.0000
  0
SEQEND
  8
0
  0
POLYLINE
  8
1
 66
1
 10
0.0000
 20
0.0000
 30
0.0000
 40
0.2032
 41
0.2032
 70
0
  0
VERTEX
  8
1
 10
40.6400
 20
17.6784
 30
0.0000
 42
1.0000
  0
VERTEX
  8
1
 10
40.6400
 20
17.8816
 30
0.0000
  0
SEQEND
  8
0
  0
POLYLINE
  8
1
 66
1
 10
0.0000
 20
0.0000
 30
0.0000
 40
0.4064
 41
0.4064
 70
0
  0
VERTEX
  8
1
 10
33.0200
 20
17.7800
 30
0.0000
  0
VERTEX
  8
1
 10
33.0200
 20
8.8900
 30
0.0000
  0
SEQEND
  8
0
  0
POLYLINE
  8
1
 66
1
 10
0.0000
 20
0.0000
 30
0.0000
 40
0.2032
 41
0.2032
 70
0
  0
VERTEX
  8
1
 10
32.9184
 20
8.8900
 30
0.0000
 42
1.0000
  0
VERTEX
  8
1
 10
33.1216
 20
8.8900
 30
0.0000
  0
SEQEND
  8
0
  0
POLYLINE
  8
1
 66
1
 10
0.0000
 20
0.0000
 30
0.0000
 40
0.2032
 41
0.2032
 70
0
  0
VERTEX
  8
1
 10
33.1216
 20
17.7800
 30
0.0000
 42
1.0000
  0
VERTEX
  8
1
 10
32.9184
 20
17.7800
 30
0.0000
  0
SEQEND
  8
0
  0
POLYLINE
  8
1
 66
1
 10
0.0000
 20
0.0000
 30
0.0000
 40
0.4064
 41
0.4064
 70
0
  0
VERTEX
  8
1
 10
33.0200
 20
8.8900
 30
0.0000
  0
VERTEX
  8
1
 10
27.9400
 20
8.8900
 30
0.0000
  0
SEQEND
  8
0
  0
POLYLINE
  8
1
 66
1
 10
0.0000
 20
0.0000
 30
0.0000
 40
0.2032
 41
0.2032
 70
0
  0
VERTEX
  8
1
 10
27.9400
 20
8.9916
 30
0.0000
 42
1.0000
  0
VERTEX
  8
1
 10
27.9400
 20
8.7884
 30
0.0000
  0
SEQEND
  8
0
  0
POLYLINE
  8
1
 66
1
 10
0.0000
 20
0.0000
 30
0.0000
 40
0.2032
 41
0.2032
 70
0
  0
VERTEX
  8
1
 10
33.0200
 20
8.7884
 30
0.0000
 42
1.0000
  0
VERTEX
  8
1
 10
33.0200
 20
8.9916
 30
0.0000
  0
SEQEND
  8
0
  0
ENDSEC
  0
EOF
